by:josh
band:foo fighters
album:bonus dvd from one by one
song:walking a line
tuning:C G C F A D

this is an awsome song i cant beleive it didnt make the album but anyway
you should check it out.....

key:
~ = hold
* = rest
* = long rest
intro
D-------------------------------------------------------------
A-------------------------------------------------------------
F-5-5-5-5-5-5-5-5-------5---------5---------5---------5---5---
C-------------------------------------------------------------
G-------------------------------------------------------------
C-----------------0-0-0---0-3-3-3---3-5-5-5---5-3-3-3---3---3-

verse
D---------------------------------------------
A---------------------------------------------
F-------5---------5---------4---------5---5---
C---------------------------------------------
G---------------------------------------------
C-0-0-0---0-3-3-3---3-5-5-5---5-3-3-3---3---3-

D---------------------------------------------
A---------------------------------------------
F-------7---------9--------10---------5---5---
C---------------------------------------------
G---------------------------------------------
C-0-0-0---0-3-3-3---3-5-5-5---5-3-3-3---3---3-

chorus 1st and 2nd time (just first time in each chorus)
D----------------------------------------------------
A----------------------------------------------------
F-(5~-5~-5~-5-5-5)-7-7-7-7-7-7-------------------------
C------------------7-7-7-7-7-7-3-3-3-3-5-5-5-5-3-3-3-3-
G------------------5-5-5-5-5-5-3-3-3-3-5-5-5-5-3-3-3-3-
C------------------------------3-3-3-3-5-5-5-5-3-3-3-3-

breakdown 1
D-------------------------------------
A-------------------------------------
F-------------------------------------
C-7-7-7-7-7-7-7-7---7-7-7-7-7-7-7-7---
G-5-5-5-5-5-5-5-5-*-5-5-5-5-5-5-5-5-*-(2x)
C-------------------------------------

then long rest then

breakdown 2
D-------------------------------------
A-------------------------------------
F-------------------------------------
C-------------------------------------
G-5-5-5-5-5-5-------------------------(4x)
C-------------3-3-3-3-5-5-5-5-3-3-3-3-

chorus 3
D-----------------------------------------
A-----------------------------------------
F-----------------------------------------
C-0-0-0-0-0-0-0-0-3-3-3-3-5-5-5-5-3-3-3-3-
G-0-0-0-0-0-0-0-0-3-3-3-3-5-5-5-5-3-3-3-3-(8x)
C-0-0-0-0-0-0-0-0-3-3-3-3-5-5-5-5-3-3-3-3-

outro
D---------------------
A---------------------
F-5---5---5---5---5---
C---------------------
G---------------------
C-----------3---3---0-

order:
intro 1x
verse 1x then 1x palm muted
chorus 2x
verse 1x then 1x palm muted
chorus 4x
breakdown 1
breakdown 2
chorus 3
outro 1x


Текст, аккорды и табулатура для песни "Walking A Line", исполняет "Foo Fighters".
Используемые в песне аккорды можно найти в разделе Как брать аккорды. Аккорды для шестиструнной гитары. Другие песни можно найти на нашем сайте, воспользовавшись алфавитным указателем вверху страницы.


 
Ошибка в тексте? Выделите ошибку и нажмите Ctrl+Enter