Tabbed by: JOE SCULLY

FOO FIGHTERS - STACKED ACTORS

Tuning: Drop A tuning (i think)

INTRO - 

e|---------------------------------------------------------------------------|
B|---------------------------------------------------------------------------|
G|---------------------------------------------------------------------------|
D|--3------------------------------------------------------------------------|
A|---------------------------------------------------------------------------|
A|----0-0--3-5-5-3-5/10-10-3-5-5-3-5/8-8-6-6-5-3-5-4-4-3-6-6-5-3--X2---------|
then
e|---------------------------------------------------------------------------|
B|---------------------------------------------------------------------------|
G|---------------------------------------------------------------------------|
D|---------------------------------------------------------------------------|
A|------0-0--3-5-5-3-5/10-10-3-5-5-3-5/8-8-6-6-5-3-5-4-4-3-6-6-5-3-----------|
A|-16/--0-0--3-5-5-3-5/10-10-3-5-5-3-5/8-8-6-6-5-3-5-4-4-3-6-6-5-3--X2-------|

VERSE (listen carefully to song)- 

1. Only in mirror you're coming clear........

e|-0-------------------------------------------------------------------------|
B|-1-------------------------------------------------------------------------|
G|-0-(let ring)----0---------------------------------------------------------|
D|-2-----------------------4-------2-------0-------2------------0------2---2-|
A|-0--------------------------------------------------3----------------------|
A|---------------------------------------------------------------------------|

1. Im impressed what a beautiful chest.........
2. God bless what a sensitive mess........

e|-0-------------------------------------------------------------------------|
B|-1-------------------------------------------------------------------------|
G|-0-(let ring)---------------0-------------------------------0--------------|
D|-2-----------------------------------4-------2--0--------------------------|
A|-0-------------------------------------------------------------------------|
A|---------------------------------------------------------------------------|

1. Will you resign to the latest design?........
2. Your teary eyes, your famous disguise......

e|-0-------------------------------------------------------------------------|
B|-1-------------------------------------------------------------------------|
G|-0-(let ring)---------------------0-----------------2--------------0-------|
D|-2------------------------0--------------------------------4---------------|
A|-0--------------------------------------3--------5-------------------------|
A|---------------------------------------------------------------------------|

1. One more for hire, a wonderful liar?.......
2. See through me, but what do you do......

e|-0-------------------------------------------------------------------------|
B|-1-------------------------------------------------------------------------|
G|-0-(let ring)-----------0--------------------0-----------------------------|
D|-2------------------------------2-------4----------------------------3-----|
A|-0----------------------------------------------3-----------0--------------|
A|---------------------------------------------------------------------------|

PRE-CHORUS - 

stacked actors stacked to the rafters line up the bastards all i want is the
e|---------------------------------------------------------------------------|
B|---------------------------------------------------------------------------|
G|---------------------------------------------------------------------------|
D|---------------------------------------------------------------------------|
A|---------------------------------------------------------------------------|
A|-0-----------0----------------------0--------0----------0------0---12---12-|

CHORUS - PLAY INTRO RIFF

INTERLUDE W/ SOLO - 

e|---------------------------------------------------------------------------|
B|---------------------------------------------------------------------------|
G|---------------------------------------------------------------------------|
D|---------------------------------------------------------------------------|
A|---------------------------------------------------------------------------|
A|-0-----0-3-5-0-5-3-0--0-3-5-0-5-3-0-0-0-3-5-0-3-6-6-5-3-6-6-5-3------------|

e|---------------------------------------------------------------------------|
B|--------------------------------------------------------8---8--------------|
G|-----------------------------------5------5--7----5--7--7---7--------------|
D|--4b-4b-4b-4b--4b-4-4-4-4-4/7--7-7----7--------7---------------------------|
A|---------------------------------------------------------------------------|
A|---------------------------------------------------------------------------|

e|---------------------------------------------------------------------------|
B|--8------------------------------------------------------------------------|
G|--7-(X18)------------------------------------------------------------------|
D|-------------------7--5--5--4--4--2-----2----7--5--5--4--4--2-----2--------|
A|-------------------------------------0-------------------------0-----------|
A|---------------------------------------------------------------------------|

e|---------------------------------------------------------------------------|
B|---------------------------------------------------------------------------|
G|-----------------5-----------------------5--0------------------------------|
D|--7--5--5--4--4-----------7--5--5--4--4-----0----7--5--5--4--2-----2-------|
A|---------------------0------------------------------------------0----------|
A|---------------------------------------------------------------------------|

e|---------------------------------------------------------------------------|
B|---------------------------------------------------------------------------|
G|-----------------5-----5---5---5---5---------------------------------------|
D|--7--7--5--5--4-----4--4(b)4(b)4(b)4(b)------------------------------------|
A|---------------------------------------------------------------------------|
A|---------------------------------------------------------------------------|


Текст, аккорды и табулатура для песни "Stacked Actors", исполняет "Foo Fighters".
Используемые в песне аккорды можно найти в разделе Как брать аккорды. Аккорды для шестиструнной гитары. Другие песни можно найти на нашем сайте, воспользовавшись алфавитным указателем вверху страницы.


 
Ошибка в тексте? Выделите ошибку и нажмите Ctrl+Enter