Song: Enough Space
Artist: Foo Fighters
Album: The Colour And The Shape
Tuning: Standard (e B G D A E)

I figured out the key parts to this song. Everything is foolproof except
I didnt take the time to figure out how long each intro lasted. But it shouldnt
be too hard to figure out.

Intro(w/delay) 

e||------3---|
B||----3-----|
G||--0-------| 
D||----------|
A||----------|
E||----------|

Intro (part two)
e||--3----3----3----3-|
B||--3----3----3----3-|
G||--0----0----0----0-|
D||-------------------|
A||-------------------|
E||-------------------|

Intro (part three)

e||-3-3-3-3-3-3-----5-------||
B||-3-3-3-3-3-3-3-5---5-----||
G||-0-0-0-0-0-0-------------||
D||-------------------------||
A||-------------------------||
E||-------------------------||

Chorus
e||--------------------||
B||--------------------||
G||------5-6-----------||
D||--5---5-6--6-7-7-7--||
A||--5---3-4--6-7-7-7--||
E||--3--------4-5-5-5--||

Verse (Just Bass)

Bridge
e||----------------|----------------------------------------------------------||
B||----------------|----------------------------------------------------------||
G||----------------|----------------------------------------------------------||
D||--4-4---4-x-x-x-|-8-8-8-8-10-10-10-8-8-8-8-10-10-10-8-8-8-8-10-8-10-11-11--||
A||--4-4---4-x-x-x-|----------------------------------------------------------||
E||--2-2-0-2-x-x-x-|----------------------------------------------------------||
  (4x)

If you are clueless on this piece or have uestions, any e-mails are welcome
at Incubusdude17[at]hotmail[dot]com


Текст, аккорды и табулатура для песни "Enough Space", исполняет "Foo Fighters".
Используемые в песне аккорды можно найти в разделе Как брать аккорды. Аккорды для шестиструнной гитары. Другие песни можно найти на нашем сайте, воспользовавшись алфавитным указателем вверху страницы.


 
Ошибка в тексте? Выделите ошибку и нажмите Ctrl+Enter