leader of the band

intro:

|--------------0-|-----------------|---------------|---0-------------|
|-3--------3-----|---3---1---0-----|-1-------1-----|-3---3-1---0-----|
|-----0----------|---------------0-|-----0-------0-|---------------0-|
|---3--------3---|-----3-------0---|---2-------2---|-------------0---|
|-2--------------|-2-------0-------|-3-------------|-3---------------|
|-------3--------|-----------------|-------3-------|---------3-------|
            
                                                     then 
|-------0-------|-----------------|-2---------------|---------3-----|
|-0h1-----1-----|-0-1-0-----------|-----3-----------|---0h1---------|
|-----------2---|-------0---0---0-|---2---0h2p0---0-|-------------0-|
|-----2-------2-|-------------2---|-0-----------4---|---0h2-----2---|
|-0-------------|-----------------|-----------------|---------------|
|---------------|-0-------0-------|-----------------|-3-----3-------|

|---------3---|----------------|
|---0h1-----1-|-0-------0------|
|-------------|-----0-------0--|
|---0h2-----2-|---0-------0----|
|-------------|----------------|
|-3-----3-----|-3-----3--------|

verses:

|-3-------------------------------|----------------|---------------|
|---0h1-------------0-------------|---------3------|---------1-----|
|---------0---0---------0---0---0-|-----4--------4-|-----0-------0-|
|---0h2-----0---------0-------0---|---4--------4---|---2-------2---|
|---------------------------------|-2--------------|-3-------------|
|-3-----3--------3--------3-------|-------2--------|-------3-------|

                                
|---------------|-------0-------|---------------|------------2-----|
|-0-------1-----|---3-------3---|---------1-----|---1--------------|
|-----2-------2-|---------------|-----2-------2-|-------0------2-0-|
|---2-------2---|-----2-------2-|---2-------2---|-----2----0-------|
|-0-------------|---------------|-0-----0-------|-3----------------|
|-------0-------|-0-------0-----|---------------|------------------|


|------------2-----|--------------|
|---1--------------|---0---0--1-3-|
|-------2------2-0-|--------------|
|-----2------------|--------------|
|-0-------0--------|-----0----0-2-|
|------------------|-3------------|

|-0-------------|---------------|---------------|-------------|
|-1-------1-----|---------3-----|---------1-----|---0---0-1-3-|
|-----0-------0-|-----4-------4-|-----0-------0-|-------------|
|---2-------2---|---4-------4---|---2-------2---|-------------|
|-3-------------|-2-------------|-3-------------|-----0---0-2-|
|-------3-------|-------2-------|-------3-------|-3-----------|
                                  
|-----------------|-------0-------|---------------|---1-------------|
|-1--------1------|---3-------3---|-1-------1-----|-----------3-----|
|-----2---------2-|---------------|-----2-------2-|-------2---------|
|---2---------2---|-----2-------2-|---2-------2---|-----3---0---2-0-|
|-0---------------|---------------|-0-------------|-----------------|
|--------0--------|-0-------0-----|-------0-------|-1---------------|


|-----------------|---------3-----|---------3---|---------------|
|---1-------1-----|---0h1---------|---0h1-----1-|-0-------0-----|
|-------2-------0-|-------------0-|-------------|-----0-------0-|
|-----2-------2---|---0h2-----2---|---0h2-----2-|---0-------0---|
|-0-------3-------|---------------|-------------|---------------|
|-----------------|-3-----3-------|-3-----3-----|-3-----3-------|

outro:

|--------------0-|-----------------|---------------|---0-------------|
|-3--------3-----|---3---1---0-----|-1-------1-----|-3---3-1---0-----|
|-----0----------|---------------0-|-----0-------0-|---------------0-|
|---3--------3---|-----3-------0---|---2-------2---|-------------0---|
|-2--------------|-2-------0-------|-3-------------|-3---------------|
|-------3--------|-----------------|-------3-------|---------3-------|
            
                                                    
|-------0-------|-----------------|-2---------------|---------1-----|
|-0h1-----1-----|-0-1-0-----------|-----3-----------|-------0-------|
|-----------2---|-------0---0---0-|---2---0h2p0---0-|-----0---------|
|-----2-------2-|-------------2---|-0-----------4---|---0-----------|
|-0-------------|-----------------|-----------------|---------------|
|---------------|-0-------0-------|-----------------|-3-------------|

order of song
intro
verse 1
verse 2
chorus
verse 3
intro
verse 4 
chorus
outro

kayo na bhala sa sequence ng kanta..


Текст, аккорды и табулатура для песни "Leader Of The Band", исполняет "Fogelberg Dan".
Используемые в песне аккорды можно найти в разделе Как брать аккорды. Аккорды для шестиструнной гитары. Другие песни можно найти на нашем сайте, воспользовавшись алфавитным указателем вверху страницы.


Слушать онлайн Leader of The Band


Dan FogelbergLeader of The Band на Яндекс.Музыке


 
Ошибка в тексте? Выделите ошибку и нажмите Ctrl+Enter