Вступление:
 
 B         B
----------------------------------
----------------------------------
-8--------------8-----------------
-9-----9--10-9--9--9--7--9--10-9--
-9--------------9-----------------
-7--------------7-----------------

 B         B B B B B C C
-------------------------------------
-------------------------------------
-8--------------8--4--4--4--4--5--5--
-9-----9--10-9--9--4--4--4--4--5--5--
-9--------------9--2--2--2--2--3--3--
-7--------------7--2--2--2--2--3--3--

 B         B
----------------------------------
----------------------------------
-8--------------8-----------------
-9-----9--10-9--9--9--7--9--10-9--
-9--------------9-----------------
-7--------------7-----------------

 B         B B7 B B7 B C C
-------------------------------------
-------------------------------------
-8--------------8--9--9--9--9--9--9--...
-9-----9--10-9--9--10-10-10-10-10-10-... (несколько раз)
-9--------------9--10-10-10-10-10-10-...
-7--------------7--8--8--8--8--8--8--...

 Esus4 Em
-------
-------
-2-----
-2--2--
-2--2-- ... (4 раза)
-------

Аккорды, использованные в куплете:
B:   799877 (или на втором, но чтобы не ломать пальцы советую 7-ой %)
Em:   022000
Esus4: 022200
Am:   002210
C:   030210
Cadd9: 030230

B
 Я знаю, ты взволнован -
B               Esus4 Em Esus4 Em Esus4 Em Esus4 Em
 ты так боишься чьих-то слез
B
 Но я - всего лишь клоун,
B               Esus4 Em Esus4 Em Esus4 Em Esus4 Em
 не принимай меня всерьез...
B
 Здесь неуместна жалость,
B               Esus4 Em Esus4 Em Esus4 Em Esus4 Em
 за что, скажи, меня жалеть?
B
 Пусть у меня нет шансов,
B               Esus4 Em Esus4 Em Esus4 Em Esus4 Em
 но я могу тебя развлечь...

 Припев:

G
 Я запутаюсь в декорациях
C         Am Am Am Am Am Am Am Am Am Am
 и на грязный песок
        С Cadd9 Cadd9 C
 вдруг упаду...
G
 Все вокруг начнут смеяться
C       Am
 и я увижу твое лицо
         Esus4 Em Esus4 Em Esus4 Em Esus4 Em
 в первом ряду.


 А я, рискуя жизнью,
 могу упасть к твоим ногам.
 Но все мои ужимки -
 пустой, дешевый балаган.
 Я не скажу ни слова,
 ведь у меня - немая роль.
 Ведь я - печальный клоун,
 ведь моя боль - смешная боль...

 Я запутаюсь в декорациях
 и на грязный песок
 вдруг упаду...
 Все вокруг начнут смеяться
 и я увижу твое лицо
 в первом ряду.

Проигрыш:

 B B B   C   C C C C C C C    
----------------------------------------
----------------------------------------   |
-4--4--4-----5-----5--5--5--5--5--5--5--   |- ... 3 раза
-4--4--4-----5-----5--5--5--5--5--5--5--   |
-2--2--2-----3-----3--3--3--3--3--3--3--   |
-2--2--2-----3-----3--3--3--3--3--3--3--   /

 C       B
----------3--------------------2--------------
-------------5--------------------4-----------
-------5--------5-----------4--------4--------
----5--------------5-----4--------------4-----
-3--------------------2--------------------2--
----------------------------------------------

Esus4 Em  (4 раза)


 Никто уже не сможет
 предотвратить мою беду.
 Похлопай мне в ладоши
 когда я снова упаду
 Пускай мне станет хуже, -
 тебе об этом не узнать.
 А если будет нужно, -
 я развлеку тебя опять...

Outro:

 B B B   C   C C C C C C C    
----------------------------------------
----------------------------------------   |
-4--4--4-----5-----5--5--5--5--5--5--5--   |- ... 3 раза
-4--4--4-----5-----5--5--5--5--5--5--5--   |
-2--2--2-----3-----3--3--3--3--3--3--3--   |
-2--2--2-----3-----3--3--3--3--3--3--3--   /

(на фоне веселенькой песенки...)
 C       B
----------3--------------------2--------------
-------------5--------------------4-----------
-------5--------5-----------4--------4--------
----5--------------5-----4--------------4-----
-3--------------------2--------------------2--
----------------------------------------------



Текст, аккорды и табулатура для песни "Печальный клоун", исполняет "Flёur".
Используемые в песне аккорды можно найти в разделе Как брать аккорды. Аккорды для шестиструнной гитары. Другие песни можно найти на нашем сайте, воспользовавшись алфавитным указателем вверху страницы.


 
Ошибка в тексте? Выделите ошибку и нажмите Ctrl+Enter