Song: Sucker Punch
Artist: Flybanger
Album: -
As tabbed by Joe Muggah
[email protected]

Dropped D tuning

Verse (palm muted)
e---------------------------------------------------------
B---------------------------------------------------------
G---------------------------------------------------------
D---------------------------------------------------------
A---------------------------------------------------------
D--1p0--0--1p0--0--1p0--0--1p0--0--1p0--1p0---------------

Chorus
e---------------------------------------------------------
B---------------------------------------------------------
G---------------------------------------------------------
D--3--5--0--0--5p0---3--5--0--0--5p0---3--5--0--0--5p0----
A--3--5--0--0--5p0---3--5--0--0--5p0---3--5--0--0--5p0----
D--3--5--0--0--5p0---3--5--0--0--5p0---3--5--0--0--5p0----

(continued)
e---------------------------------------------------------
B---------------------------------------------------------
G---------------------------------------------------------
D--6--6--6--0--3------------------------------------------
A--6--6--6--0--3------------------------------------------
D--6--6--6--0--3------------------------------------------

Riff 1 (palm muted)
e---------------------------------------------------------
B---------------------------------------------------------
G---------------------------------------------------------
D----------------------------1^---------------------------
A--1h3-3-3-3-3--1h3-3-3-3-3-------------------------------
D---------------------------------------------------------

Riff 2 (palm muted)
e---------------------------------------------------------
B---------------------------------------------------------
G---------------------------------------------------------
D---------------------------------------------------------
A--1h3-3-3-3-3--1h3-3-3-3-3--1h3--5-5-5-5-----------------
D---------------------------------------------------------

Riff 3
e---------------------------------------------------------
B---------------------------------------------------------
G---------------------------------------------------------
D--0--10h12p10--0--10h12p10--0--10h12p10--0--10h12p10-----
A--0--10h12p10--0--10h12p10--0--10h12p10--0--10h12p10-----
D--0--10h12p10--0--10h12p10--0--10h12p10--0--10h12p10-----

Riff 4
e---------------------------------------------------------
B---------------------------------------------------------
G------------------5-5------------------5-----------------
D--0--10h12p10--0--3-3--0--10h12p10--0--3-----------------
A--0--10h12p10--0--3-3--0--10h12p10--0--3-----------------
D--0--10h12p10--0-------0--10h12p10--0--------------------

Riff 5 (palm muted)            end on
e------------------------------|--------------------------
B------------------------------|--------------------------
G------------------------------|--------------------------
D------------------------------|-------1p0--------1-------
A------------------------------|--------------------------
D--6p5p0--6p5p0--6p5p0--6p5p0--|--1--1------1--1----------

Outro                          end on
e-------------------------------|-------------------------
B-------------------------------|-------------------------
G-------------------------------|-------------------------
D--3--5--0--0-0---3--5--0--0-0--|--3h5--3--0--------------
A--3--5--0--0-0---3--5--0--0-0--|--3h5--3--0--------------
D--3--5--0--0-0---3--5--0--0-0--|--3h5--3--0--------------


Verse
Verse (with wah wah)
Verse
Chorus
Verse (with wah wah)
Verse
Chorus
Riff 1
Riff 2
Riff 3
Riff 4
Riff 5
Verse (with wah wah)
Chorus
Outro


Текст, аккорды и табулатура для песни "Suckerpunch", исполняет "Flybanger".
Используемые в песне аккорды можно найти в разделе Как брать аккорды. Аккорды для шестиструнной гитары. Другие песни можно найти на нашем сайте, воспользовавшись алфавитным указателем вверху страницы.


 
Ошибка в тексте? Выделите ошибку и нажмите Ctrl+Enter