Artist: Flaw
Song: Payback
Album: Through The Eyes
Tabbed By: Dean K. ([email protected])
Tuning: B,F,B,E


Intro*: 
(0:01) 
E|--------------7-7-7-5-5-5---------------------7-7-7-0-7h8-8-------| 
B|--0-0-0-7-7-7-------------7-5-----0-0-0-7-7-7-----------------0-0-| 
F|------------------------------7-----------------------------------| 
B|------------------------------------------------------------------| 

E|---------7-7-7-5-5-5---------------------(7-7-7-0-7h8-7h8)---| 
B|-0-7-7-7-------------7-5-----0-0-0-7-7-7---------------------| 
F|-------------------------7-----------------------------------| 
B|-------------------------------------------------------------| 

X2 
*The second time through this riff replace the part in the () with this: 
E|--------------------| 
B|---0-0-0-7-7-7------| 
F|--------------------| 
B|----------------0---| 

Chorus: 
(0:19) 
E|--------------------------------------------------| 
B|--------------------------------------------------| 
F|--------------------------------------------------| 
B|---1--0--1-1--0--1-1--0-1-1--1--0--1-1--6-6-5-5---| 
X4 

Verse*: 
(0:40) 
E|--------------7-7-7-5-5-5---------------------7-7-7-0-7h8-8-------| 
B|--0-0-0-7-7-7-------------7-5-----0-0-0-7-7-7-----------------0-0-| 
F|------------------------------7-----------------------------------| 
B|------------------------------------------------------------------| 

E|---------7-7-7-5-5-5---------------------(7-7-7-0-7h8-7h8)---| 
B|-0-7-7-7-------------7-5-----0-0-0-7-7-7---------------------| 
F|-------------------------7-----------------------------------| 
B|-------------------------------------------------------------| 
X2 
*The second time through this riff replace the part in the () with this: 
E|--------------------| 
B|---0-0-0-7-7-7------| 
F|--------------------| 
B|----------------0---| 


Chorus: 
(1:00) 
E|--------------------------------------------------| 
B|--------------------------------------------------| 
F|--------------------------------------------------| 
B|---1--0--1-1--0--1-1--0-1-1--1--0--1-1--6-6-5-5---| 
X4 

Verse*: 
(1:21) 
E|--------------7-7-7-5-5-5---------------------7-7-7-0-7h8-8-------| 
B|--0-0-0-7-7-7-------------7-5-----0-0-0-7-7-7-----------------0-0-| 
F|------------------------------7-----------------------------------| 
B|------------------------------------------------------------------| 

E|---------7-7-7-5-5-5---------------------(7-7-7-0-7h8-7h8)---| 
B|-0-7-7-7-------------7-5-----0-0-0-7-7-7---------------------| 
F|-------------------------7-----------------------------------| 
B|-------------------------------------------------------------| 
X2 
*The second time through this riff replace the part in the () with this: 
E|--------------------| 
B|---0-0-0-7-7-7------| 
F|--------------------| 
B|----------------0---| 


Bridge A: 
(1:42) 
E|------------------------------| 
B|------------------------------| 
F|------------------------------| 
B|---0--2/8--7---(0--2/8--10)---| 
X4 
*The fourth time through replace the () part with with: 
E|-------| 
B|-------| 
F|-------| 
B|---0---| 


Chorus: 
(2:01) 
E|--------------------------------------------------| 
B|--------------------------------------------------| 
F|--------------------------------------------------| 
B|---1--0--1-1--0--1-1--0-1-1--1--0--1-1--6-6-5-5---| 
X4 

Bridge B: 
(2:33) 
E|-----------------------------------| 
B|-----------------------------------| 
F|-----------------------------------| 
B|---5-4-0-5-4-0-5-4-0-5-4-0-2-1-0---| 
X8 

Chorus: 
(2:53) 
E|--------------------------------------------------| 
B|--------------------------------------------------| 
F|--------------------------------------------------| 
B|---1--0--1-1--0--1-1--0-1-1--1--0--1-1--6-6-5-5---| 
X4 

Bridge C: 
(3:14) 
E|--------------------------------------------| 
B|--------------------------------------------| 
F|--------------------------------------------| 
B|---0--0--2/12--0--0--2/10--0--0--2/12--15---| 
X1 

Chorus: 
(3:23) 
E|--------------------------------------------------| 
B|--------------------------------------------------| 
F|--------------------------------------------------| 
B|---1--0--1-1--0--1-1--0-1-1--1--0--1-1--6-6-5-5---| 
X2 

E|-----------------------| 
B|-----------------------| 
F|-----------------------| 
B|---1--0--1-1--0--1-1---| 
X1 

E|------------------------| 
B|------------------------| 
F|------------------------| 
B|---1--0--1-1--6-6-5-5---| 
X1 

E|-----------------------| 
B|-----------------------| 
F|-----------------------| 
B|---1--0--1-1--0--1-1---| 
X1 

E|------------------------| 
B|------------------------| 
F|------------------------| 
B|---1--0--1-1--6-6-5-5---| 
X1


Текст, аккорды и табулатура для песни "Payback", исполняет "Flaw".
Используемые в песне аккорды можно найти в разделе Как брать аккорды. Аккорды для шестиструнной гитары. Другие песни можно найти на нашем сайте, воспользовавшись алфавитным указателем вверху страницы.


 
Ошибка в тексте? Выделите ошибку и нажмите Ctrl+Enter