I have wanted to see a good version of this for a while, but decided to take matters into my own hands.  I know he uses a seven string but not all of us have one.  Tune from low to high B-F#-B-E-G#-C#.

Intro
E---7—7-77—7-7-7777          4X
B---7—7-77—7-7-7777
F---5—5-55—5-5-5555
B------------------

B—6--
F—6--
B—6--
pm……..

Chorus
B---0-0-—0—00-0—00—00—00—0-6—5--           4X
F---0-0-—0—00-0—00—00—00—0-6—5--
B---0-0-—0—00-0—00—00—00—0-6—5--

Verse
B-------7—8---------------7—8---7             4X
F---5------------------5---------
B--------------------------------

Chorus

Verse      

Prechorus    is the same as the verse the only thing that changes is the bass

Chorus

Solo
B---------------------------------------------------------5
F6-5-0-6-5-0-6-5-0-6-5-0-6565-6-5-0-6-5-0-6-5-0-6-5-0-6-5--
B----------------------------------------------------------
          3X

The 4th time play this
E---------------------------77777777--
B---------------------------77777777—6-6
F---6-5-0-6-5-0-6-5-0-6-5-0-55555555—6-6
B------------------------------------6-6
                                   pm...                    
Chorus

I think that should be it, enjoy flaw fans.


Текст, аккорды и табулатура для песни "Payback", исполняет "Flaw".
Используемые в песне аккорды можно найти в разделе Как брать аккорды. Аккорды для шестиструнной гитары. Другие песни можно найти на нашем сайте, воспользовавшись алфавитным указателем вверху страницы.


 
Ошибка в тексте? Выделите ошибку и нажмите Ctrl+Enter