-------------------------------------------------------------------------------
			     My Letter - Flaw
-------------------------------------------------------------------------------

Tabbed by: Mirza
Email: [email protected]

Tuning: B F# B E G# C#

Flaw use moslty 7-string guitars for their music, but i made this tab for a 
6-string guitar. I played along with it a couple of times and i think its 
pretty close. its not everything in the song but main parts are there.
i dont know the intro but you can get it from someone else. 
if you have any questions, email me.

First comes the intro

   this starts at 0:57
C#|---------------------------------------------------------------------------|
G#|---------------------------------------------------------------------------|
E |---------------------------------------------------------------------------|
B |--00-2---22-0---00-2---22-0---00-2---22-0---00-2----4/5-/7---54-5-4-0-----|
F#|--00-2---22-0---00-2---22-0---00-2---22-0---00-2----4/5-/7---54-5-4-0-----|
B |--00-2---22-0---00-2---22-0---00-2---22-0---00-2----4/5-/7---54-5-4-0-----|
pm   xx     xx     xx     xx     xx     xx     xx                          

C#|---------------------------------------------------------------------------|
G#|---------------------------------------------------------------------------|
E |---------------------------------------------------------------------------|
B |-2-2222-4/5-0-0000-54|     2-2222-4/5-/7---54-5-4-0---h2-p0--h2-p0-------|
F#|-2-2222-4/5-0-0000-54| X3  2-2222-4/5-/7---54-5-4-0---h2-p0--h2-p0-------|
B |-2-2222-4/5-0-0000-54|     2-2222-4/5-/7---54-5-4-0---h2-p0--h2-p0-------|

C#|---------------------------------------------------------------------------|
G#|---------------------------------------------------------------------------|
E |---------------------------------------------------------------------------|
B |--00-2---22-0---00-2---22-0---00-2---22-0---00-2----4/5-/7---54-5-4-0-----|
F#|--00-2---22-0---00-2---22-0---00-2---22-0---00-2----4/5-/7---54-5-4-0-----|
B |--00-2---22-0---00-2---22-0---00-2---22-0---00-2----4/5-/7---54-5-4-0-----|
pm   xx     xx     xx     xx     xx     xx     xx

C#|---------------------------------------------------------------------------|
G#|---------------------------------------------------------------------------|
E |---------------------------------------------------------------------------|
B |-2-2222-4/5-0-0000-54|     2-2222-4/5-/7---54-5-4-0---2-00---------------|
F#|-2-2222-4/5-0-0000-54| X3  2-2222-4/5-/7---54-5-4-0---2-00---------------|
B |-2-2222-4/5-0-0000-54|     2-2222-4/5-/7---54-5-4-0---2-00---------------|

C#|---------------------------------------------------------------------------|
G#|---------------------------------------------------------------------------|
E |---------------------------------------------------------------------------|
B |-22-2222222222--00-0000000000|     22 2222222-4/5-/7---54-5-4-0-----------|
F#|-22-2222222222--00-0000000000| X3  22 2222222-4/5-/7---54-5-4-0-----------|
B |-22-2222222222--00-0000000000|     22 2222222-4/5-/7---54-5-4-0-----------|
pm     xxxxxxxxxx     xxxxxxxxxx         xxxxxxx         
 
C#|---------------------------------------------------------------------------|
G#|---------------------------------------------------------------------------|
E |---------------------------------------------------------------------------|
B |-2-2222-4/5-0-0000-54|     2-2222-4/5-/7---54-5-4-0----------------------|
F#|-2-2222-4/5-0-0000-54| X3  2-2222-4/5-/7---54-5-4-0----------------------|
B |-2-2222-4/5-0-0000-54|     2-2222-4/5-/7---54-5-4-0----------------------|

C#|---------------------------------------------------------------------------|
G#|---------------------------------------------------------------------------|
E |---------------------------------------------------------------------------|
B |---2----0----2----4/5-/7---54-5-4-0-----|
F#|---2----0----2----4/5-/7---54-5-4-0-----| X2
B |---2----0----2----4/5-/7---54-5-4-0-----|

let the last note ring out.


| /  slide up
|   slide down
| h  hammer-on
| p  pull-off
| ~  vibrato
| +  harmonic
| x  Mute note

===============================================================================


Текст, аккорды и табулатура для песни "My Letter", исполняет "Flaw".
Используемые в песне аккорды можно найти в разделе Как брать аккорды. Аккорды для шестиструнной гитары. Другие песни можно найти на нашем сайте, воспользовавшись алфавитным указателем вверху страницы.


 
Ошибка в тексте? Выделите ошибку и нажмите Ctrl+Enter