Artist- Flaw
Song- My Letter
Tabber- Iconoclast
Tuning- B, Gb, B, E, Ab, Db (ive heard people say they play 7 string guitars, but this 
is how u play it with 6 string)

Intro- 1st guitar
---------------------------------------------
--------3-----3----------0---0-0h1p0---------
---0------0-----0----0---------------0---0---
---------------------------------------2-----
---------------------------------------------
-2---2------2------0---0---------------------

Intro- 2nd guitar (comes in at 0:09)
-7~-7h8p7-------------------
----------8/10--------------
---------------9-7-9-------
----------------------------
----------------------------
----------------------------

Verse
------3-3-3p2------------------
----0-3-3-3-----------0--------
----0-0-0-----------0-0--2-----
-------------------------------
-------------------------------
-2----------------0------------

Occasionally you'll hear this
------3-3-3p2-----------------------
----0-3-3-3-----------0-0h1p0-------
----0-0-0-----------0-0-------0---0-
--------------------------------2---
------------------------------------
-2----------------0-----------------

2nd Guitar riff at 0:33
-12p10----------------------
-------12-12p13h12----------
----------------------------
----------------------------
----------------------------
----------------------------

Leading into prechorus (palm mute, but slowly release the mute)
----------------------------
----------------------------
----------------------------
-0-0-0-0-0-0-0-0-0-0-0-0----
-0-0-0-0-0-0-0-0-0-0-0-0----
-0-0-0-0-0-0-0-0-0-0-0-0----


Prechorus
---------3--------------------------------
---------5--------------------------------
-------4----------------------------------
-2-0-2-----0-2-0-2-5-7-5-4-5-4-0----------
-2-0-2-----0-2-0-2-5-7-5-4-5-4-0----------
-2-0-2-----0-2-0-2-5-7-5-4-5-4-0----------

Chorus- Repeat first line as neccessary, than end on the last line
------------------------------
------------------------------
------------------------------
-2-0-2-0-2--5-0-0-0-0-0--4----
-2-0-2-0-2--5-0-0-0-0-0--4----
-2-0-2-0-2--5-0-0-0-0-0--4----

----------------------------
----------------------------
----------------------------
-2-0-2-0-2-4-5-7-5-4-5-4-0--
-2-0-2-0-2-4-5-7-5-4-5-4-0--
-2-0-2-0-2-4-5-7-5-4-5-4-0--

Riff at 1:54
-7h8p7---------------------------
-------8-10----------------------
---------------------------------
---------------------------------
---------------------------------
---------------------------------

Bridge- Guitar 1
----------------------------
-8p7------------------------
-----9---7------------------
-------9--------------------
----------------------------
----------------------------

Bridge- Guitar 2 
---------------------------------------------------
---------------------------------------------------
---------------------------------------------------
-2-2-2-2-2-2-2-2-2-2-2-2-2-0-0-0-0-0-0-0-0-0-0-0-0-
-2-2-2-2-2-2-2-2-2-2-2-2-2-0-0-0-0-0-0-0-0-0-0-0-0-
-2-2-2-2-2-2-2-2-2-2-2-2-2-0-0-0-0-0-0-0-0-0-0-0-0-
     pm...................     pm.................

Enjoy.


Текст, аккорды и табулатура для песни "My Letter", исполняет "Flaw".
Используемые в песне аккорды можно найти в разделе Как брать аккорды. Аккорды для шестиструнной гитары. Другие песни можно найти на нашем сайте, воспользовавшись алфавитным указателем вверху страницы.


 
Ошибка в тексте? Выделите ошибку и нажмите Ctrl+Enter