-------------------------------------------------------------------------------
			     MY LETTER - FLAW
-------------------------------------------------------------------------------

By: DISCREPANCYKID

e|---------------------------------------------------------------------------|
B|---------------------------------------------------------------------------|
G|---------8---------8-------------------------------------------------------|
D|----6-------6---------6-----6----5----5-5--h6---5--------------------------| Intro
A|--8---8--------8----------6---6---------------5----------------------------|
E|---------------------------------------------------------------------------|

e|---------------------------------------------------------------------------|
B|---------------------------------------------------------------------------|
G|------9----8-h9-8------------5------5-h6--5--------------------------------|
D|---6--8-------------------6-----6------------------------------------------| Verse
A|-8---------------------6---------------------------------------------------|
E|---------------------------------------------------------------------------|
   We starting following...
e|---------------------------------------------------------------------------|
B|---------------------------------------------------------------------------|
G|---------------------------------------------------------------------------|
D|--2-2-2-2-2-2-2-2---4-4-4-------2-2-2--------------------------------------| Pre Chorus
A|--2-2-2-2-2-2-2-2---4-4-4-------2-2-2--------------------------------------|
E|--0-0-0-0-0-0-0-0---2-2-2-------0-0-0--------------------------------------|
    PM.............   Pm. Ring.   Pm. Ring.
e|---------------------------------------------------------------------------|
B|---------------------------------------------------------------------------|
G|---------------------------------------------------------------------------|
D|-7-/-9---x--7--6-6---4-2---------------------------------------------------| Pre Chorus
A|-7-/-9---x--7--6-6---4-2---------------------------------------------------|
E|-5-/-7---x--5--4-4---2-0---------------------------------------------------|
   So hear it goes , this is my letter...
e|---------------------------------------------------------------------------|
B|---------------------------------------------------------------------------|
G|---------------------------------------------------------------------------|
D|--4-x-44--44-/-7---2-x-22-22---22------------------------------------------| Chorus
A|--4-x-44--44-/-7---2-x-22-22---22------------------------------------------|
E|--2-x-22--22-/-5---0-x-00-00---00------------------------------------------|

e|---------------------------------------------------------------------------|
B|---------------------------------------------------------------------------|
G|---------------------------------------------------------------------------|
D|-44--xxxxx--xx--22--xxxxxx--xx---------------------------------------------| Interlude
A|-44--xxxxx--xx--22--xxxxxx--xx---------------------------------------------|
E|-22--xxxxx--xx--00--xxxxxx--xx---------------------------------------------|



Ok this tab is probably extremly.....wrong but whatever it works for me and 
like my good friend jay said , send me any corrections unless your mike leger
cuz then im sure im wrong............

===============================================================================


Текст, аккорды и табулатура для песни "My Letter", исполняет "Flaw".
Используемые в песне аккорды можно найти в разделе Как брать аккорды. Аккорды для шестиструнной гитары. Другие песни можно найти на нашем сайте, воспользовавшись алфавитным указателем вверху страницы.


 
Ошибка в тексте? Выделите ошибку и нажмите Ctrl+Enter