Song: The Greatest Story Ever Told
Artist: Five Iron Frenzy
Tabbed by: Ryan willet
This is one of my favorite five iron songs
Key: >=play as many times as is on the cd
Intro
G-----------------------------------
D-----------------------------------
A--7--55--00--22------55--00-22-----
E-----------------00----------------
Verse
G------------------------   --------------------------
D------------------------   --------------------------
A--77-7------------------   ----4-5-4-7-5-4-----------
E-------77--55--44-4--77-   --5-------------5---------
prechorus
G------------------- ------------
D------------------- -----6-7------
A--77---55---------- -7-9----------
E-----------55--3--- ------------
chorus
G----------------------
D----------------------
A----0----0----2----2--
E-00---00---22---22----
I have also come up with a different thing to play that sounds better
for the chorus
my chorus
G-----------------------
D-----------------------
A--7r--5r--------2r-----
E---------5r--2r--------
start soft but consistent then
play more and more furious as you go
Bridge:
G---------------------------------
D---------------------------------
A---------------------------------
E--4>--7>--5>--7>-----------------

i bet your so glad that i sat next to my cd player for
hours rewinding the song so i could tab it for you enjoy
this song is hard because Keith plays it with slight
variations on the different times he plays the same thing!
that's all thanx being honest about credit in tabs


Текст, аккорды и табулатура для песни "The Greatest Story Ever Told", исполняет "Five Iron Frenzy".
Используемые в песне аккорды можно найти в разделе Как брать аккорды. Аккорды для шестиструнной гитары. Другие песни можно найти на нашем сайте, воспользовавшись алфавитным указателем вверху страницы.


 
Ошибка в тексте? Выделите ошибку и нажмите Ctrl+Enter