ARTIST: Five Iron Frenzy
ALBUM: Quantity is Job 1
SONG: Sweet Talking Woman
Tabbed by Vic

r=ring out
>=strum

INTRO:
G:-----------------------------------------------------------------*
D:-----------------------------------------------------------------*
A:-----------------------------------------------------------------*
E:-1-1-1-1-3-3-3-3-5-5-5-5-5-5-5-5-5-5-5-5-7-7-7-7-8-8-8-8-8-8-8-8-*

G:-----------------------------------------------------------------I
D:-----------------------------------------------------------------I
A:-----------------------------------------------------------------I
E:-1-1-1-1-3-3-3-3-5-5-5-5-5-5-5-5-5-5-5-5-7-7-7-7-8r--------------I

VERSE:
G:-----------------------------------------------------------------I
D:-----------------------------------------------------------------I
A:----10------10------7------3------2-----7----5-5--7-7--5-5--7-7--I
E:--8----87-8----87-5---53-1---21-0---345---57---------------------I

Pre-chorus is just the first half of the intro

CHORUS:
    Riff 1           Riff 2 (x2)
G:----------*---------------------------I
D:----------*--10---45-7----------------I
A:----------*----10------7--8>7>8>10>---I
E:-88888888-*-8-------------------------I

These are the only riffs, played in that order.  At the end the chorus
(riff 2) is played more than twice.
Well, that's it folks. Until next time, take care of yourselves...and
each other.

corrections/response: [email protected]


Текст, аккорды и табулатура для песни "Sweet Talking Woman", исполняет "Five Iron Frenzy".
Используемые в песне аккорды можно найти в разделе Как брать аккорды. Аккорды для шестиструнной гитары. Другие песни можно найти на нашем сайте, воспользовавшись алфавитным указателем вверху страницы.


 
Ошибка в тексте? Выделите ошибку и нажмите Ctrl+Enter