Song:      Most Likely to Succeed
Artist:    Five Iron Frenzy
Album:     Our Newest Album Ever!
Tabbed by: Ryan Willet

This song is tricky, but I've mastered the intricacies of this song. The 
guitar intro is the verse. The horns will throw you off so be careful. 
R: let not ring
>: Play more than once 

Intro/Verse:
G: -----------------------------------------------
D: ---3-----------5-------------------------------
A: -4---4-44-5--6---6-66-5----4----------3------3-
E: --------------------------5---5-55-4-4---4-44--

Pre-Chorus:
G: --------------------------------------------
D: --------------------------------------------
A: -----4>----4>--6>----6>----6>-------1r---3r-
E: --2>----2>--------4>----4>----4>--2r---4r---

Chorus:
G: ------------------------
D: ------------------------
A: --4>-------4>------3-4--         
E: -----6>-4>----6>-4------

Bridge:
        x4         x4
G: --------------------
D: ----------------3-6-
A: ------3-6---44-----
E: --44--------------- 2x
 
     x4      x4      x4      x4
G: -------------------------------------
D: -------------------------------------
A: -----3-6----4-8-----1-4-----3-6----4-
E: --44------66------22------44---------


Текст, аккорды и табулатура для песни "Most Likely To Succeed", исполняет "Five Iron Frenzy".
Используемые в песне аккорды можно найти в разделе Как брать аккорды. Аккорды для шестиструнной гитары. Другие песни можно найти на нашем сайте, воспользовавшись алфавитным указателем вверху страницы.


 
Ошибка в тексте? Выделите ошибку и нажмите Ctrl+Enter