Wickedest CD ever!!!

tuning-half a step dow+drop D-Db Ab Db Gb Bb Eb

h=hammeron
p=pull off
=slide down
/=slide up
b=bend
^=bend and bend back


intro/second part of second verse

1---------------------------------------------|
2---------------------------------------------|
3----9-9--9-109-------------------------------|
4-0--x-x--x-x-x-8-8-5-------------------------|
5-0--7-7--7-87-8-8-5-------------------------|
6-0-------------8-8-5-------------------------|

Chorus

1-----------------------------------------------------------|
2--------0-----------0------------------------  0-----------|n last time, end on
3--------2b(3)-------2b-------------------------------------|
4-1-1-1-1-----3-3-3-3-----8--7--8--7-7-7h8p7----------------|
5-1-1-1-1-----3-3-3-3---55-55-55-55-5---------  Ab-555-555--|
6-1-1-1-1-----3-3-3-3---55-55-55-55-5---------  Db-555-555--|

verse 2 part 1

1---------------------------------------------|
2---------------------------------------------|
3---------------------------------------------|  palm muted
4---------------------------------------------|
5--7-7-7-8-7----------------------------------|
6-0---------8-8-5-----------------------------|

Bridge

1---------------------------------------------|
2---------------------------------------------|
3---------------------------------------------| x3
4-888888-333333-------------------------------|
5-888888-333333-0-5-3-3-5-0-7-5-3-5-----------|
6-888888-333333-0---------0-------------------|

1----------------------------------------------|
2----------------------------------------------|
3----------------------------------------------|
4-555555-333333-888888-333333-00000000---------|
5-555555-333333-888888-333333-00000000---------|
6-555555-333333-888888-333333-00000000---------|

SOLO!

1--------------------------------------------------|
2-10--10^(13)8b(10)--------8-10-------10-10^-10^--|
3-------------------10-10-10----10b(12)------------|
4--------------------------------------------------|
5--------------------------------------------------|
6--------------------------------------------------|

1---------------------------------------------------------------------------|
2----------8-10---10-10^-10^---------8-10----10-10^-10^-17b(18)--15b(17)-15-|
3--10-10-10----10b-----------10-10-10----10b-------------------14-----------|
4---------------------------------------------------------------------------|
5---------------------------------------------------------------------------|
6---------------------------------------------------------------------------|

ROCK ON


Текст, аккорды и табулатура для песни "Stay In Shadows", исполняет "Finger Eleven".
Используемые в песне аккорды можно найти в разделе Как брать аккорды. Аккорды для шестиструнной гитары. Другие песни можно найти на нашем сайте, воспользовавшись алфавитным указателем вверху страницы.


 
Ошибка в тексте? Выделите ошибку и нажмите Ctrl+Enter