-------------------------------------------------------------------------------
			     SONG NAME - Band Name
-------------------------------------------------------------------------------
Tabbed by:numbfig09
Email:[email protected]

hey whats up  Its my first tab yeah!
It seems a lot longer than it is cuz i did the entire thing so........hope you enjoy
Tuning:dropped-D tuning for both guitars i think

First Verse: (accoustic)
e|-------------------------------------|-10----------10---------------|
B|-10----------10-----7----------7-----|-----7----------7---10--------|
G|-----9----------9------9---------9---|-------9-(9)------9-----------|
D|-------7-(7)------7------7-(7)-----7-|--7---------------------------|
A|--0-----------------0----------------|---------------------0--------|
E|-------------------------------------|------------------------------|

e|-------------------------------------|-10----------10---------------|
B|-10----------10-----7----------7-----|-----7----------7---10--------|
G|-----9----------9------9---------9---|-------9-(9)------9-----------|
D|-------7-(7)------7------7-(7)-----7-|--7---------------------------|
A|--0-----------------0----------------|---------------------0--------|
E|-------------------------------------|------------------------------|

e|-------------------------------------|-10----------10---------------|
B|-10----------10-----7----------7-----|-----7----------7---10--------|
G|-----9----------9------9---------9---|-------9-(9)------9-----------|
D|-------7-(7)------7------7-(7)-----7-|--7---------------------------|
A|--0-----------------0----------------|---------------------0--------|
E|-------------------------------------|------------------------------|


e|-------------------------------------|-10----------10---------------|
B|-10----------10-----7----------7-----|-----7----------7---10--------|
G|-----9----------9------9---------9---|-------9-(9)------9-----------|
D|-------7-(7)------7------7-(7)-----7-|--7---------------------------|
A|--0-----------------0----------------|---------------------0--------|
E|-------------------------------------|------------------------------|

First Chorus:
e|--0---0--0--0--0--0---0---0--0--0--0--0---|
B|-10--10-10-10-10-10--10--10-10-10-10-10---|
G|--9---9--9--9--9--9---9---9--9--9--9--9---|
D|--7---7--7--7--7--7---7---7--7--7--7--7---|
A|--0---0--0--0--0--0---0---0--0--0--0--0---|
E|------------------------------------------|

e|--0---0--0--0--0--0---0---0--0--0--0--0----|
B|-10--10-10-10-10-10--10--10-10-10-10-10----|
G|--9---9--9--9--9--9---9---9--9--9--9--9--0-|
D|--7---7--7--7--7--7---7---7--7--7--7--7--0-|
A|--0---0--0--0--0--0---0---0--0--0--0--0--0-|
E|-------------------------------------------|

e|--0---0--0--0--0--0---0---0--0--0--0--0---|
B|--0---0--0--0--0--0---0---0--0--0--0--0---|
G|--7---7--7--7--7--7---7---7--7--7--7--7---|
D|--9---9--9--9--9--9---9---9--9--9--9--9---|
A|--0---0--0--0--0--0---0---0--0--0--0--0---|
E|------------------------------------------|

e|--0---0--0--0--0--0---0---0--0--0--0---0-----|
B|--0---0--0--0--0--0---0---0--0--0--0---0-----|
G|--7---7--7--7--7--7---7---7--7--7--7---7---0-|
D|--9---9--9--9--9--9---9---9--9--9--9---9---0-|
A|--0---0--0--0--0--0---0---0--0--0--0---0---0-|
E|---------------------------------------------|

Verse 2: (accoustic)
e|-------------------------------------|-10----------10---------------|
B|-10----------10-----7----------7-----|-----7----------7---10--------|
G|-----9----------9------9---------9---|-------9-(9)------9-----------|
D|-------7-(7)------7------7-(7)-----7-|--7---------------------------|
A|--0-----------------0----------------|---------------------0--------|
E|-------------------------------------|------------------------------|
 |                                                                    |
 |                                                                    |
 |(accoustic)                                                         |
e|-------------------------------------|------------------------------|
B|-10----------------------------------|-10---------------------------|
G|--9----------------------------------|--9---------------------------|
D|--7----------------------------------|--7---------------------------|
A|--0----------------------------------|--0---------------------------|
E|-------------------------------------|------------------------------|



e|-------------------------------------|-10----------10---------------|
B|-10----------10-----7----------7-----|-----7----------7---10--------|
G|-----9----------9------9---------9---|-------9-(9)------9-----------|
D|-------7-(7)------7------7-(7)-----7-|--7---------------------------|
A|--0-----------------0----------------|---------------------0--------|
E|-------------------------------------|------------------------------|
 |                                                                    |
 |                                                                    |
 |                                                                    |
e|-------------------------------------|------------------------------|
B|-10----------------------------------|-10---------------------------|
G|--9----------------------------------|--9---------------------------|
D|--7----------------------------------|--7---------------------------|
A|--0----------------------------------|--0---------------------------|
E|-------------------------------------|------------------------------|


e|-------------------------------------|-10----------10---------------|
B|-10----------10-----7----------7-----|-----7----------7---10--------|
G|-----9----------9------9---------9---|-------9-(9)------9-----------|
D|-------7-(7)------7------7-(7)-----7-|--7---------------------------|
A|--0-----------------0----------------|---------------------0--------|
E|-------------------------------------|------------------------------|
 |                                                                    |
 |                                                                    |
 |                                                                    |
e|-------------------------------------|------------------------------|
B|-10----------------------------------|-10---------------------------|
G|--9----------------------------------|--9---------------------------|
D|--7----------------------------------|--7---------------------------|
A|--0----------------------------------|--0---------------------------|
E|-------------------------------------|------------------------------|



e|-------------------------------------|-10----------10---------------|
B|-10----------10-----7----------7-----|-----7----------7---10--------|
G|-----9----------9------9---------9---|-------9-(9)------9-----------|
D|-------7-(7)------7------7-(7)-----7-|--7---------------------------|
A|--0-----------------0----------------|---------------------0--------|
E|-------------------------------------|------------------------------|
 |                                                                    |
 |                                                                    |
 |                                                                    |
e|-------------------------------------|------------------------------|
B|-10----------------------------------|-10---------------------------|
G|--9----------------------------------|--9---------------------------|
D|--7----------------------------------|--7---------------------------|
A|--0----------------------------------|--0---------------------------|
E|-------------------------------------|------------------------------|

Chorus 2:
e|--0---0--0--0--0--0---0---0--0--0--0--0---|
B|-10--10-10-10-10-10--10--10-10-10-10-10---|
G|--9---9--9--9--9--9---9---9--9--9--9--9---|
D|--7---7--7--7--7--7---7---7--7--7--7--7---|
A|--0---0--0--0--0--0---0---0--0--0--0--0---|
E|------------------------------------------|
 |                                          |
 |                                          |
 |(electric w/ distortion)                  |
e|--14~~~~~~~~~~~~~~~~~~~~~~~~~~~~~~~~~~~~~~|
B|------------------------------------------|
G|------------------------------------------|
D|------------------------------------------|
A|------------------------------------------|
E|------------------------------------------|

e|--0---0--0--0--0--0---0---0---0--0--0------|
B|-10--10-10-10-10-10--10--10--10-10-10------|
G|--9---9--9--9--9--9---9---9---9--9--9--0---|
D|--7---7--7--7--7--7---7---7---7--7--7--0---|
A|--0---0--0--0--0--0---0---0---0--0--0--0---|
E|-------------------------------------------|
 |                                           |
 |                                           |
 |                                           |
e|--14~~~~~~~~~~~~~~~~~~~~~~~~~~~~~~~~~~~~~~~|
B|-------------------------------------------|
G|-------------------------------------------|
D|-------------------------------------------|
A|-------------------------------------------|
E|-------------------------------------------|

e|--0---0--0--0--0--0---0------0--0--0--0--|
B|--0---0--0--0--0--0---0------0--0--0--0--|
G|--7---7--7--7--7--7---7------7--7--7--7--|
D|--9---9--9--9--9--9---9------9--9--9--9--|
A|--0---0--0--0--0--0---0------0--0--0--0--|
E|-----------------------------------------|
 |                                         |
 |                                         |
 |                                         |
e|----------------------17-----------------|
B|--15-------------------------------------|
G|-----------------------------------------|
D|-----------------------------------------|
A|-----------------------------------------|
E|-----------------------------------------|

e|--0---0---0--0--0---0------0--0------|
B|--0---0---0--0--0---0------0--0------|
G|--7---7---7--7--7---7------7--7---0--|
D|--9---9---9--9--9---9------9--9---0--|
A|--0---0---0--0--0---0------0--0---0--|
E|-------------------------------------|
 |                                     |
 |                                     |
 |                                     |
e|--17-----------------------21b21b21b-|
B|-------------------------------------|
G|-------------------------------------|
D|-------------------------------------|
A|-------------------------------------|
E|-------------------------------------|

e|--0---0--0--0--0--0---0---0--0--0--0--0---|
B|-10--10-10-10-10-10--10--10-10-10-10-10---|
G|--9---9--9--9--9--9---9---9--9--9--9--9---|
D|--7---7--7--7--7--7---7---7--7--7--7--7---|
A|--0---0--0--0--0--0---0---0--0--0--0--0---|
E|------------------------------------------|
 |                                          |
 |                                          |
 |(electric w/ distortion)                  |
e|--14~~~~~~~~~~~~~~~~~~~~~~~~~~~~~~~~~~~~~~|
B|------------------------------------------|
G|------------------------------------------|
D|------------------------------------------|
A|------------------------------------------|
E|------------------------------------------|

e|--0---0--0--0--0--0---0---0---0--0--0------|
B|-10--10-10-10-10-10--10--10--10-10-10------|
G|--9---9--9--9--9--9---9---9---9--9--9--0---|
D|--7---7--7--7--7--7---7---7---7--7--7--0---|
A|--0---0--0--0--0--0---0---0---0--0--0--0---|
E|-------------------------------------------|
 |                                           |
 |                                           |
 |                                           |
e|--14~~~~~~~~~~~~~~~~~~~~~~~~~~~~~~~~~~~~~~~|
B|-------------------------------------------|
G|-------------------------------------------|
D|-------------------------------------------|
A|-------------------------------------------|
E|-------------------------------------------|

e|--0---0--0--0--0--0---0------0--0--0--0--|
B|--0---0--0--0--0--0---0------0--0--0--0--|
G|--7---7--7--7--7--7---7------7--7--7--7--|
D|--9---9--9--9--9--9---9------9--9--9--9--|
A|--0---0--0--0--0--0---0------0--0--0--0--|
E|-----------------------------------------|
 |                                         |
 |                                         |
 |                                         |
e|----------------------17-----------------|
B|--15-------------------------------------|
G|-----------------------------------------|
D|-----------------------------------------|
A|-----------------------------------------|
E|-----------------------------------------|

e|--0---0---0--0--0---0------0--0------|
B|--0---0---0--0--0---0------0--0------|
G|--7---7---7--7--7---7------7--7---0--|
D|--9---9---9--9--9---9------9--9---0--|
A|--0---0---0--0--0---0------0--0---0--|
E|-------------------------------------|
 |                                     |
 |                                     |
 |                                     |
e|--17-----------------------21b21b21b-|
B|-------------------------------------|
G|-------------------------------------|
D|-------------------------------------|
A|-------------------------------------|
E|-------------------------------------|

e|--0---0--0--0--0--0---0---0--0--0--0--0---|
B|-10--10-10-10-10-10--10--10-10-10-10-10---|
G|--9---9--9--9--9--9---9---9--9--9--9--9---|
D|--7---7--7--7--7--7---7---7--7--7--7--7---|
A|--0---0--0--0--0--0---0---0--0--0--0--0---|
E|------------------------------------------|
 |                                          |
 |                                          |
 |(electric w/ distortion)                  |
e|--14~~~~~~~~~~~~~~~~~~~~~~~~~~~~~~~~~~~~~~|
B|------------------------------------------|
G|------------------------------------------|
D|------------------------------------------|
A|------------------------------------------|
E|------------------------------------------|

e|--0---0--0--0--0--0---0---0---0--0--0------|
B|-10--10-10-10-10-10--10--10--10-10-10------|
G|--9---9--9--9--9--9---9---9---9--9--9--0---|
D|--7---7--7--7--7--7---7---7---7--7--7--0---|
A|--0---0--0--0--0--0---0---0---0--0--0--0---|
E|-------------------------------------------|
 |                                           |
 |                                           |
 |                                           |
e|--14~~~~~~~~~~~~~~~~~~~~~~~~~~~~~~~~~~~~~~~|
B|-------------------------------------------|
G|-------------------------------------------|
D|-------------------------------------------|
A|-------------------------------------------|
E|-------------------------------------------|

e|--0---0--0--0--0--0---0------0--0--0--0--|
B|--0---0--0--0--0--0---0------0--0--0--0--|
G|--7---7--7--7--7--7---7------7--7--7--7--|
D|--9---9--9--9--9--9---9------9--9--9--9--|
A|--0---0--0--0--0--0---0------0--0--0--0--|
E|-----------------------------------------|
 |                                         |
 |                                         |
 |                                         |
e|----------------------17-----------------|
B|--15-------------------------------------|
G|-----------------------------------------|
D|-----------------------------------------|
A|-----------------------------------------|
E|-----------------------------------------|

e|--0---0---0--0--0---0------0--0------|
B|--0---0---0--0--0---0------0--0------|
G|--7---7---7--7--7---7------7--7---0--|
D|--9---9---9--9--9---9------9--9---0--|
A|--0---0---0--0--0---0------0--0---0--|
E|-------------------------------------|
 |                                     |
 |                                     |
 |                                     |
e|--17-----------------------21b21b21b-|
B|-------------------------------------|
G|-------------------------------------|
D|-------------------------------------|
A|-------------------------------------|
E|-------------------------------------|

Verse 3:
e|-------------------------------------|-10----------10---------------|
B|-10----------10-----7----------7-----|-----7----------7---10--------|
G|-----9----------9------9---------9---|-------9-(9)------9-----------|
D|-------7-(7)------7------7-(7)-----7-|------------------------------|
A|--0-----------------0----------------|--0------------------0--------|
E|-------------------------------------|------------------------------|
 |                                                                    |
 |   w/bar                                                            |
 |   ~~~~~~~~~~~~~~~~~~~~~~~~~~~~~~~~~~~~~~~~~~~~~~~~~~~~~~~~~~~~~~~~~|
e|--12---------------------------------|--12--------------------------|
B|--14---------------------------------|--14--------------------------|
G|-------------------------------------|------------------------------|
D|-------------------------------------|------------------------------|
A|-------------------------------------|------------------------------|
E|-------------------------------------|------------------------------|


e|-------------------------------------|-10----------10---------------|
B|-10----------10-----7----------7-----|-----7----------7---10--------|
G|-----9----------9------9---------9---|-------9-(9)------9-----------|
D|-------7-(7)------7------7-(7)-----7-|------------------------------|
A|--0-----------------0----------------|--0------------------0--------|
E|-------------------------------------|------------------------------|
 |                                                                    |
 |   w/bar                                                            |
 |   ~~~~~~~~~~~~~~~~~~~~~~~~~~~~~~~~~~~~~~~~~~~~~~~~~~~~~~~~~~~~~~~~~|
e|--12---------------------------------|--12--------------------------|
B|--14---------------------------------|--14--------------------------|
G|-------------------------------------|------------------------------|
D|-------------------------------------|------------------------------|
A|-------------------------------------|------------------------------|
E|-------------------------------------|------------------------------|

e|-------------------------------------|-10----------10---------------|
B|-10----------10-----7----------7-----|-----7----------7---10--------|
G|-----9----------9------9---------9---|-------9-(9)------9-----------|
D|-------7-(7)------7------7-(7)-----7-|------------------------------|
A|--0-----------------0----------------|--0------------------0--------|
E|-------------------------------------|------------------------------|
 |                                                                    |
 |   w/bar                                                            |
 |   ~~~~~~~~~~~~~~~~~~~~~~~~~~~~~~~~~~~~~~~~~~~~~~~~~~~~~~~~~~~~~~~~~|
e|--12---------------------------------|--12--------------------------|
B|--14---------------------------------|--14--------------------------|
G|-------------------------------------|------------------------------|
D|-------------------------------------|------------------------------|
A|-------------------------------------|------------------------------|
E|-------------------------------------|------------------------------|

Chorus:
e|--0---0--0--0--0--0---0---0--0--0--0--0---|
B|-10--10-10-10-10-10--10--10-10-10-10-10---|
G|--9---9--9--9--9--9---9---9--9--9--9--9---|
D|--7---7--7--7--7--7---7---7--7--7--7--7---|
A|--0---0--0--0--0--0---0---0--0--0--0--0---|
E|------------------------------------------|
 |                                          |
 |                                          |
 |(electric w/ distortion)                  |
e|--14~~~~~~~~~~~~~~~~~~~~~~~~~~~~~~~~~~~~~~|
B|------------------------------------------|
G|------------------------------------------|
D|------------------------------------------|
A|------------------------------------------|
E|------------------------------------------|

e|--0---0--0--0--0--0---0---0---0--0--0------|
B|-10--10-10-10-10-10--10--10--10-10-10------|
G|--9---9--9--9--9--9---9---9---9--9--9--0---|
D|--7---7--7--7--7--7---7---7---7--7--7--0---|
A|--0---0--0--0--0--0---0---0---0--0--0--0---|
E|-------------------------------------------|
 |                                           |
 |                                           |
 |                                           |
e|--14~~~~~~~~~~~~~~~~~~~~~~~~~~~~~~~~~~~~~~~|
B|-------------------------------------------|
G|-------------------------------------------|
D|-------------------------------------------|
A|-------------------------------------------|
E|-------------------------------------------|

e|--0---0--0--0--0--0---0------0--0--0--0--|
B|--0---0--0--0--0--0---0------0--0--0--0--|
G|--7---7--7--7--7--7---7------7--7--7--7--|
D|--9---9--9--9--9--9---9------9--9--9--9--|
A|--0---0--0--0--0--0---0------0--0--0--0--|
E|-----------------------------------------|
 |                                         |
 |                                         |
 |                                         |
e|----------------------17-----------------|
B|--15-------------------------------------|
G|-----------------------------------------|
D|-----------------------------------------|
A|-----------------------------------------|
E|-----------------------------------------|

e|--0---0---0--0--0---0------0--0------|
B|--0---0---0--0--0---0------0--0------|
G|--7---7---7--7--7---7------7--7---0--|
D|--9---9---9--9--9---9------9--9---0--|
A|--0---0---0--0--0---0------0--0---0--|
E|-------------------------------------|
 |                                     |
 |                                     |
 |                                     |
e|--17-----------------------21b21b21b-|
B|-------------------------------------|
G|-------------------------------------|
D|-------------------------------------|
A|-------------------------------------|
E|-------------------------------------|

e|--0---0--0--0--0--0---0---0--0--0--0--0---|
B|-10--10-10-10-10-10--10--10-10-10-10-10---|
G|--9---9--9--9--9--9---9---9--9--9--9--9---|
D|--7---7--7--7--7--7---7---7--7--7--7--7---|
A|--0---0--0--0--0--0---0---0--0--0--0--0---|
E|------------------------------------------|
 |                                          |
 |                                          |
 |(electric w/ distortion)                  |
e|--14~~~~~~~~~~~~~~~~~~~~~~~~~~~~~~~~~~~~~~|
B|------------------------------------------|
G|------------------------------------------|
D|------------------------------------------|
A|------------------------------------------|
E|------------------------------------------|

e|--0---0--0--0--0--0---0---0---0--0--0------|
B|-10--10-10-10-10-10--10--10--10-10-10------|
G|--9---9--9--9--9--9---9---9---9--9--9--0---|
D|--7---7--7--7--7--7---7---7---7--7--7--0---|
A|--0---0--0--0--0--0---0---0---0--0--0--0---|
E|-------------------------------------------|
 |                                           |
 |                                           |
 |                                           |
e|--14~~~~~~~~~~~~~~~~~~~~~~~~~~~~~~~~~~~~~~~|
B|-------------------------------------------|
G|-------------------------------------------|
D|-------------------------------------------|
A|-------------------------------------------|
E|-------------------------------------------|

e|--0---0--0--0--0--0---0------0--0--0--0--|
B|--0---0--0--0--0--0---0------0--0--0--0--|
G|--7---7--7--7--7--7---7------7--7--7--7--|
D|--9---9--9--9--9--9---9------9--9--9--9--|
A|--0---0--0--0--0--0---0------0--0--0--0--|
E|-----------------------------------------|
 |                                         |
 |                                         |
 |                                         |
e|----------------------17-----------------|
B|--15-------------------------------------|
G|-----------------------------------------|
D|-----------------------------------------|
A|-----------------------------------------|
E|-----------------------------------------|

e|--0---0---0--0--0---0------0--0------|
B|--0---0---0--0--0---0------0--0------|
G|--7---7---7--7--7---7------7--7---0--|
D|--9---9---9--9--9---9------9--9---0--|
A|--0---0---0--0--0---0------0--0---0--|
E|-------------------------------------|
 |                                     |
 |                                     |
 |                                     |
e|--17-----------------------21b21b21b-|
B|-------------------------------------|
G|-------------------------------------|
D|-------------------------------------|
A|-------------------------------------|
E|-------------------------------------|

e|--0---0--0--0--0--0---0---0--0--0--0--0---|
B|-10--10-10-10-10-10--10--10-10-10-10-10---|
G|--9---9--9--9--9--9---9---9--9--9--9--9---|
D|--7---7--7--7--7--7---7---7--7--7--7--7---|
A|--0---0--0--0--0--0---0---0--0--0--0--0---|
E|------------------------------------------|
 |                                          |
 |                                          |
 |(electric w/ distortion)                  |
e|--14~~~~~~~~~~~~~~~~~~~~~~~~~~~~~~~~~~~~~~|
B|------------------------------------------|
G|------------------------------------------|
D|------------------------------------------|
A|------------------------------------------|
E|------------------------------------------|

e|--0---0--0--0--0--0---0---0---0--0--0------|
B|-10--10-10-10-10-10--10--10--10-10-10------|
G|--9---9--9--9--9--9---9---9---9--9--9--0---|
D|--7---7--7--7--7--7---7---7---7--7--7--0---|
A|--0---0--0--0--0--0---0---0---0--0--0--0---|
E|-------------------------------------------|
 |                                           |
 |                                           |
 |                                           |
e|--14~~~~~~~~~~~~~~~~~~~~~~~~~~~~~~~~~~~~~~~|
B|-------------------------------------------|
G|-------------------------------------------|
D|-------------------------------------------|
A|-------------------------------------------|
E|-------------------------------------------|

e|--0---0--0--0--0--0---0------0--0--0--0--|
B|--0---0--0--0--0--0---0------0--0--0--0--|
G|--7---7--7--7--7--7---7------7--7--7--7--|
D|--9---9--9--9--9--9---9------9--9--9--9--|
A|--0---0--0--0--0--0---0------0--0--0--0--|
E|-----------------------------------------|
 |                                         |
 |                                         |
 |                                         |
e|----------------------17-----------------|
B|--15-------------------------------------|
G|-----------------------------------------|
D|-----------------------------------------|
A|-----------------------------------------|
E|-----------------------------------------|

e|--0---0---0--0--0---0------0--0------|
B|--0---0---0--0--0---0------0--0------|
G|--7---7---7--7--7---7------7--7---0--|
D|--9---9---9--9--9---9------9--9---0--|
A|--0---0---0--0--0---0------0--0---0--|
E|-------------------------------------|
 |                                     |
 |                                     |
 |                                     |
e|--17-----------------------21b21b21b-|
B|-------------------------------------|
G|-------------------------------------|
D|-------------------------------------|
A|-------------------------------------|
E|-------------------------------------|

e|--0---0--0--0--0--0---0---0--0--0--0--0---|
B|-10--10-10-10-10-10--10--10-10-10-10-10---|
G|--9---9--9--9--9--9---9---9--9--9--9--9---|
D|--7---7--7--7--7--7---7---7--7--7--7--7---|
A|--0---0--0--0--0--0---0---0--0--0--0--0---|
E|------------------------------------------|
 |                                          |
 |                                          |
 |(electric w/ distortion)                  |
e|--14~~~~~~~~~~~~~~~~~~~~~~~~~~~~~~~~~~~~~~|
B|------------------------------------------|
G|------------------------------------------|
D|------------------------------------------|
A|------------------------------------------|
E|------------------------------------------|

e|--0---0--0--0--0--0---0---0---0--0--0------|
B|-10--10-10-10-10-10--10--10--10-10-10------|
G|--9---9--9--9--9--9---9---9---9--9--9--0---|
D|--7---7--7--7--7--7---7---7---7--7--7--0---|
A|--0---0--0--0--0--0---0---0---0--0--0--0---|
E|-------------------------------------------|
 |                                           |
 |                                           |
 |                                           |
e|--14~~~~~~~~~~~~~~~~~~~~~~~~~~~~~~~~~~~~~~~|
B|-------------------------------------------|
G|-------------------------------------------|
D|-------------------------------------------|
A|-------------------------------------------|
E|-------------------------------------------|

e|--0---0--0--0--0--0---0------0--0--0--0--|
B|--0---0--0--0--0--0---0------0--0--0--0--|
G|--7---7--7--7--7--7---7------7--7--7--7--|
D|--9---9--9--9--9--9---9------9--9--9--9--|
A|--0---0--0--0--0--0---0------0--0--0--0--|
E|-----------------------------------------|
 |                                         |
 |                                         |
 |                                         |
e|----------------------17-----------------|
B|--15-------------------------------------|
G|-----------------------------------------|
D|-----------------------------------------|
A|-----------------------------------------|
E|-----------------------------------------|

e|--0---0---0--0--0---0------0--0------|
B|--0---0---0--0--0---0------0--0------|
G|--7---7---7--7--7---7------7--7---0--|
D|--9---9---9--9--9---9------9--9---0--|
A|--0---0---0--0--0---0------0--0---0--|
E|-------------------------------------|
 |                                     |
 |                                     |
 |                                     |
e|--17-----------------------21b21b21b-|
B|-------------------------------------|
G|-------------------------------------|
D|-------------------------------------|
A|-------------------------------------|
E|-------------------------------------|

| /  slide up
|   slide down
| h  hammer-on
| p  pull-off
| ~  vibrato
| +  harmonic
| x  Mute note
===============================================================================


Текст, аккорды и табулатура для песни "One Thing", исполняет "Finger Eleven".
Используемые в песне аккорды можно найти в разделе Как брать аккорды. Аккорды для шестиструнной гитары. Другие песни можно найти на нашем сайте, воспользовавшись алфавитным указателем вверху страницы.


 
Ошибка в тексте? Выделите ошибку и нажмите Ctrl+Enter