Artist - Finger Eleven.
Album - Finger Eleven(2003).
Song - Good Times.

Tuning - Db Ab Db Gb Bb Eb
KEY: / = slide.
     b = bend.
     p = pull off.
     v = vibrato.
     x = finger mute.
     r = ring out.

ONE OF THEIR BEST SONGS!!!

INTRO:

Eb|----------|
Bb|----------|
Gb|--0----0--|
Db|--4--4----| X8
Ab|--2-------|
Db|----------|
   A bass slide is played quickly before each riff above.

VERSE:
1st Part:
Eb|---------|  |----------|
Bb|---------|  |----------|
Gb|-6--9/11-|  |--0----0--|
Db|-6--9/11-|X4|--4--4----| X4
Ab|-4--7/-9-|  |--2-------|
Db|---------|  |----------|
2nd Part:
Eb|---------|  |----------|           |----------|
Bb|---------|  |----------|           |----------|
Gb|-6--9/11-|  |--0----0--|           |--11------|
Db|-6--9/11-|X4|--4--4----|X2 ------> |--11--9/--| X1
Ab|-4--7/-9-|  |--2-------|           |---9--9/--|
Db|---------|  |----------|           |---9--9/--|

CHORUS:
1st Part:
Eb|----------------------------------------------|----------------------|
Bb|----------------------------------------------|----------------------|
Gb|--4--7-7/9-9/11--4--7-76-6/9--4--7-7/9-9/11--|--14-14-14-14--14-14--|
Db|--4--7-7/9-9/11--4--7-76-6/7--4--7-7/9-9/11--|--14-14-14-14--14-14--| X1
Ab|--2--5-5/7-7/-9--2--5-54-4/7--2--5-5/7-7/-9--|--12-12-12-12--12-12--|
Db|----------------------------------------------|----------------------|
2nd Part:
Eb|----------------------------------------------|-------------|
Bb|----------------------------------------------|-------------|
Gb|--4--7-7/9-9/11--4--7-76-6/9--4--7-7/9-9/11--|--11-7--7----|
Db|--4--7-7/9-9/11--4--7-76-6/7--4--7-7/9-9/11--|--11-7--7-7--| X1
Ab|--2--5-5/7-7/-9--2--5-57-4/7--2--5-5/7-7/-9--|---9-5--5-7--|
Db|----------------------------------------------|----------7--|

FILL:

Eb|------|
Bb|------|
Gb|--0r--|
Db|--4r--| X1
Ab|--2r--|
Db|------|

VERSE:
1st Part:
Eb|---------|  |----------|
Bb|---------|  |----------|
Gb|-6--9/11-|  |--0----0--|
Db|-6--9/11-|X4|--4--4----| X2
Ab|-4--7/-9-|  |--2-------|
Db|---------|  |----------|
2nd Part:
Eb|---------|  |--0--|
Bb|---------|  |--0--|
Gb|-6--9/11-|  |--2--|
Db|-6--9/11-|X4|--2--| X1
Ab|-4--7/-9-|  |--0--|
Db|---------|  |--2--|

CHORUS:
Part 1:
Eb|----------------------------------------------|----------------------|
Bb|----------------------------------------------|----------------------|
Gb|--4--7-7/9-9/11--4--7-76-6/9--4--7-7/9-9/11--|--14-14-14-14--14-14--|
Db|--4--7-7/9-9/11--4--7-76-6/7--4--7-7/9-9/11--|--14-14-14-14--14-14--| X1
Ab|--2--5-5/7-7/-9--2--5-54-4/7--2--5-5/7-7/-9--|--12-12-12-12--12-12--|
Db|----------------------------------------------|----------------------|
2nd Part:
Eb|----------------------------------------------|-------------|
Bb|----------------------------------------------|-------------|
Gb|--4--7-7/9-9/11--4--7-76-6/9--4--7-7/9-9/11--|--11-7--7----|
Db|--4--7-7/9-9/11--4--7-76-6/7--4--7-7/9-9/11--|--11-7--7-7--| X1
Ab|--2--5-5/7-7/-9--2--5-57-4/7--2--5-5/7-7/-9--|---9-5--5-7--|
Db|----------------------------------------------|----------7--|
1st Part(Repeated)
Eb|----------------------------------------------|----------------------|
Bb|----------------------------------------------|----------------------|
Gb|--4--7-7/9-9/11--4--7-76-6/9--4--7-7/9-9/11--|--14-14-14-14--14-14--|
Db|--4--7-7/9-9/11--4--7-76-6/7--4--7-7/9-9/11--|--14-14-14-14--14-14--| X1
Ab|--2--5-5/7-7/-9--2--5-54-4/7--2--5-5/7-7/-9--|--12-12-12-12--12-12--|
Db|----------------------------------------------|----------------------|
3rd Part:
Eb|----------------------------------------------|------|
Bb|----------------------------------------------|------|
Gb|--4--7-7/9-9/11--4--7-76-6/9--4--7-7/9-9/11--|--14--|
Db|--4--7-7/9-9/11--4--7-76-6/7--4--7-7/9-9/11--|--14--| X1
Ab|--2--5-5/7-7/-9--2--5-57-4/7--2--5-5/7-7/-9--|--12--|
Db|----------------------------------------------|--12--|

INTERLUDE:
Rick Plays:
Eb|--0--0--|
Bb|--0--0--|
Gb|--5--2--|
Db|--5--2--| X3
Ab|--3--0--|
Db|--5--2--|
James Comes In:
Eb|-----------------------------|
Bb|-----------------------------|
Gb|--5--5/7-7/9--99-9/12121212--| 
Db|--x--x-x-x-x--99-9/12121212--| X5
Ab|--3--3/5-5/7--77-7/10101010--|
Db|-----------------------------|

CHORUS:
This is kind of the interlude:
Eb|----------------------------------------------|
Bb|----------------------------------------------|
Gb|----------------------------------------------|
Db|----------------------------------------------| X2
Ab|--2--5-5h7-7/9--2--5-54-4/7--2--5-5h7-7/9----|
Db|----------------------------------------------|

Eb|----------------------------------------------|
Bb|----------------------------------------------|
Gb|--4--7-7/9-9/11--4--7-76-6/9--4--7-7/9-9/11--|
Db|--4--7-7/9-9/11--4--7-76-6/7--4--7-7/9-9/11--| X1
Ab|--2--5-5/7-7/-9--2--5-54-4/7--2--5-5/7-7/-9--|
Db|----------------------------------------------|

Eb|----------------------------------------------|-------------|
Bb|----------------------------------------------|-------------|
Gb|--4--7-7/9-9/11--4--7-76-6/9--4--7-7/9-9/11--|--11-7--7----|
Db|--4--7-7/9-9/11--4--7-76-6/7--4--7-7/9-9/11--|--11-7--7-7--| X1
Ab|--2--5-5/7-7/-9--2--5-57-4/7--2--5-5/7-7/-9--|---9-5--5-7--|
Db|----------------------------------------------|----------7--|

FILL 2:

Eb|--------|
Bb|--12v---|
Gb|--------|
Db|--------| X1
Ab|--------|
Db|--------|
                                                                              
BRIDGE:
James plays this under Rick's chorus riff:
Eb|-------------------------------------------------------------------------|
Bb|-------------------------------------------------------------------------|
Gb|--18b--18b-*18b--18b-18b---------------------14br------------------------|
Db|-------------------------16v--1614-14h16-14-------16v-16v-16v-16p14/16--| X1
Ab|-------------------------------------------------------------------------|
Db|-------------------------------------------------------------------------|
                                                                        

Eb|---------------17b-------------------------------------------------------|
Bb|--------------------18br-19v---------------------------------------------|
Gb|--18b--18brb-------------------------------------------------------------|
Db|------------------------------16v--14p16h14-14/16v--16-18br--16v--1614--| X1
Ab|-------------------------------------------------------------------------|
Db|-------------------------------------------------------------------------|
                                                                         
OUTRO:

Eb|----------|
Bb|----------|
Gb|--4----0--|
Db|--4--4----| X8
Ab|--2-------|
Db|----------|
James Does Some Crazy Stuff Under This But I Dont Know What He Does, There Is
Also A Fast Fill Riff That I Can't Get Yet! :(

Eb|-----|
Bb|-----|
Gb|--4--|
Db|--4--| X1
Ab|--2--|
Db|-----|

Finger Eleven Is:
Vocals - Scott Anderson.
Lead Guitar - James Black.
Guitar - Rick Jacket.
Bass - Sean Anderson.
Drums - Rich Beddoe.

(I Left Out the Lyrics Because The Tab Is Already Long Enough!)


Текст, аккорды и табулатура для песни "Good Times", исполняет "Finger Eleven".
Используемые в песне аккорды можно найти в разделе Как брать аккорды. Аккорды для шестиструнной гитары. Другие песни можно найти на нашем сайте, воспользовавшись алфавитным указателем вверху страницы.


 
Ошибка в тексте? Выделите ошибку и нажмите Ctrl+Enter