Acoustic - Drag You Down - Finger Eleven

You need a five string, or tune down to B,E,A,D

Verse (the part that's heavy in the album version)

G|----------------------------------|
D|----------------------------------|
A|------4-4-4-------------5---------|
E|----------------------------------|
B|--2------------2-2h3--------------|

Then this part?.

It's biting, It's teething, It's biting, I'm bleeding

G|----------------------------------------------------------------|
D|----------------------------------------------------------------|
A|----4-4--4-4-p-3-p-2-2-2-p-1-p-0-0-0----------------------------|
E|-----------------------------------------------5-p-4-p-3-3-3----|
B|----------------------------------------------------------------|

Pre-Chorus

The perfect sound?

G|------------------|
D|------------------|
A|---3-3-3----------|
E|------------------|
B|------------------|

The second time, he has a fill and I think this is what he plays

G|-------------------------------------|
D|-----------------------8-8-p-6-6-----|
A|--3-3-3---------6-h-8----------------|
E|-------------------------------------|
B|-------------------------------------|

Chorus

G|-----------------------------------------------------------|
D|-----------------------------------------------------------|
A|-4-4-4-4-4-h-5-5-4-h-5-5---9-9-9----7--7-7------4-h-5------|
E|-----------------------------------------------------------|
B|-----------------------------------------------------------|

Interlude

G|-------------------------------------------|
D|-------------------------------------------|
A|-------8-8-8-------------------------------|
E|-----------------------------/16-16--------|
B|---6-----------9-9-7-7---------------------|

That's it, Finger Eleven is and awesome band, good live, and good on cd, and awesome acoustic.

Questions, comments, corrections email me [email protected]


Текст, аккорды и табулатура для песни "Drag You Down Acoustic", исполняет "Finger Eleven".
Используемые в песне аккорды можно найти в разделе Как брать аккорды. Аккорды для шестиструнной гитары. Другие песни можно найти на нашем сайте, воспользовавшись алфавитным указателем вверху страницы.


 
Ошибка в тексте? Выделите ошибку и нажмите Ctrl+Enter