-------------------------------------------------------------------------------
			     drag you down - fingereleven
-------------------------------------------------------------------------------

By:[email protected]
  (a.k.a/gothbitch)
     some of the other versions have some good parts but this ones 100% correct
tuning: all drop half step +E dropwhole step [drop DЅ]
  ~ bend
  * harmonic
  / slide
  h / p hammer pull offs
intro
e|-------------|--------------------------|
B|-------------|--------------------------|
G|----2-----0--|-----2----2~--------------|
D|-------------|--------------------------|
A|--0---3-1----|---0--3-1-----------------|
D|-------------|--------------------------|

main riff
e|-----0000-----------0-----------------------------------------------------|
B|-----3333-----------3~----------------------------------------------------|
G|--------------------------------------------------------------------------|
D|-0----------0-1-----------------------------------------------------------|
A|-0----------0-1-----------------------------------------------------------|
D|-0----------0-1-----------------------------------------------------------|
  
e|---------------------------------------------------------------------------|
B|---------------------------------------------------------------------------|
G|---------------------------------------------------------------------------|
D|-0-0-0-1-1-0-0---7-7-7---3-3--1-1------------------------------------------|
A|-0-0-0-1-1-0-0---5-5-5---3-3--1-1------------------------------------------|
D|-0-0-0-1-1-0-0---5-5-5---3-3--1-1------------------------------------------|
  Pull me under.....
 

those are the main riffs ...im not done the solo but i might
 post it when i get around to writing it..if you wanna figure it out yourself 
it starts with sixth fret bends on the third  string
like so:
--------------------------|
--------------5H6-----7H8-|
-6~-6~-6~-6H7-----6H7-----|
--------------------------|
--------------------------|
--------------------------|   ..........ETC.


Текст, аккорды и табулатура для песни "Drag You Down", исполняет "Finger Eleven".
Используемые в песне аккорды можно найти в разделе Как брать аккорды. Аккорды для шестиструнной гитары. Другие песни можно найти на нашем сайте, воспользовавшись алфавитным указателем вверху страницы.


 
Ошибка в тексте? Выделите ошибку и нажмите Ctrl+Enter