Song: Broken Words
Album: Finger Eleven
Date: October 12, 2003
Written by: Luka Vuk, [email protected]

Here is a great Finger Eleven song that was never 
tabbed properly...so here you go everybody. Enjoy! :D

Song in drop D tuning 1/2 step down: low to high Db Ab Db Gb Bb eb

Verses: w/ slight reverb
E|---------------------------------------------------|
B|---------------------------------------------------|
G|---------------------------------------------------| 
D|-----9-----9-----9-----9---9----9-----9---9----9---|
A|--10----10----10----10---9---10----10---9---10-----|
E|---------------------------------------------------|
 
Chorus:     (main)              (end #1)               (end #2)
E|--------------------|| --------------------|  ------------------------|
B|--------------------|| --------------------|o ------------------------|*only played 
G|--------------------|| -----------------2--|  ------------------------| at end of first
D|-------5----7----4--|| -------5----4----2--|  -----------4------------| chorus before verse
A|--2----3----5----2--|| --2----3----2----0--|o --2--------2--------2*--|
E|--2-----------------|| --2-----------------|  --2-----------------2*--|
     play main, then end 1, then repeat main followed by end 2           
                                                        
Bridge:                               after bridge:      Legend:
E|--------------------------------|   E|---------|      | b  bend 
B|--------------------------------|   B|---------|      | /  slide up
G|--------------------------------|   G|---------|      |   slide down
D|----2222------------------0000--|   D|--2-2-2--|      | h  hammer-on
A|-----------3333----4444---------|   A|--2-2-2--|      | p  pull-off
E|--2------2-------2------2-------|   E|--2-2-2--|      | ~  vibrato
                                                        | +  harmonic
End of last chorus:                      Play order:    | x  Mute   
E|------------------------|              -verse (1x)    | ^  Palm mute
B|------------------------|              -chourus (1x)
G|------------------------|              -verse (1x)
D|--2-2-2-2-2-------------|              -chours (1x)
A|--2-2-2-2-2--fade out---|              -bridge (6x)
E|--2-2-2-2-2-------------|              -after bridge (1x)
                                         -chorus (2x)
Background guitar #2:                    -chourus end #2 only (1x)
        (3x)              (1x)           -end of last chorus (1x)
E|--------------|----|-------------|-----------------------------|  
B|--------------|----|-------------|-----------------------------|      
G|--------------|----|-------16----|-------16~--------------16~--|
D|-16-14----14--|-16~|-16-14----14-|-16-14------16-14----14------|
A|-------14-----|----|-------------|------------------14---------|
E|--------------|----|-------------|-----------------------------|
   Plays during every chorus                                
     in background


Текст, аккорды и табулатура для песни "Broken Words", исполняет "Finger Eleven".
Используемые в песне аккорды можно найти в разделе Как брать аккорды. Аккорды для шестиструнной гитары. Другие песни можно найти на нашем сайте, воспользовавшись алфавитным указателем вверху страницы.


 
Ошибка в тексте? Выделите ошибку и нажмите Ctrl+Enter