tuning db-ab-db-gb-bb-eb

intro
-----------|
-----------|
-10--------|
-9---------|
-8---------|
-8---------|
(let ring....)


---------------------------------|
---------------------------------|
-4-4-4-4-4-4-4-4-4-4-4-4-5-5-5-5-|
-2-2-2-2-2-2-2-2-2-2-2-2-3-3-3-3-|
-2-2-2-2-2-2-2-2-2-2-2-2-3-3-3-3-|
-2-2-2-2-2-2-2-2-2-2-2-2-3-3-3-3-|


-------------------------------------------------|
-------------------------------------------------|
-4-4-4-4-7-7-7-7-7-7-7-7-7-7-7-7-7-7-7-7-7-7-7-7-|
-2-2-2-2-6-6-6-6-6-6-6-6-6-6-6-6-6-6-6-6-6-6-6-6-|
-2-2-2-2-5-5-5-5-5-5-5-5-5-5-5-5-5-5-5-5-5-5-5-5-|
-2-2-2-2-5-5-5-5-5-5-5-5-5-5-5-5-5-5-5-5-5-5-5-5-|

play last two sections 2x

---------------------------------|
---------------------------------|
-5-5-5-5-4-4-4-4-7-7-7-7-7-7-7-7-|
-3-3-3-3-2-2-2-2-6-6-6-6-6-6-6-6-|
-3-3-3-3-2-2-2-2-5-5-5-5-5-5-5-5-|
-3-3-3-3-2-2-2-2-5-5-5-5-5-5-5-5-|  2x


verse
gtr.1   (make the strokes short, almost staccato)
-------------------------------------------------|
-------------------------------------------------|
-10-10-10-10-10-10-10-10-10-10-10-10-10-10-10-10-|
-9--9--9--9--9--9--9--9--9--9--9--9--9--9--9--9--|
-8--8--8--8--8--8--8--8--8--8--8--8--8--8--8--8--|
-8--8--8--8--8--8--8--8--8--8--8--8--8--8--8--8--|

(again, rather short notes)
------------------------|
------------------------|
-2--2--2--2--2--2--2--2-|
-0--0--0--0--0--0--0--0-|
-0--0--0--0--0--0--0--0-|
-0--0--0--0--0--0--0--0-|

gtr.2   (let these notes ring a little longer)
-------------------------------------------------|
-------------------------------------------------|
----10---10---10---10---10---10---10---10---10---|
----9----9----9----9----9----9----9----9----9----|
----8----8----8----8----8----8----8----8----8----|
----8----8----8----8----8----8----8----8----8----|

(let notes ring thru)    ()=2nd time
------------------------(9)-------|
-10----10----10-----------(10)----|
----11----------11-----------(11--|
-------------------12-------------|
----------------------------------|
----------------------------------|

both guitars
-------------------------|
-------------------------|
-------------------------|
-10-10-10-10-10-10-10-10-|
-10-10-10-10-10-10-10-10-|
-10-10-10-10-10-10-10-10-|


chorus
gtr.1
---------------------         -------------------|
---------------------         -------------------|
---------------------         -------------------|
-0-0-10p0-10p0-10p12-         -0-0-10p0-0-0-10p0-|
-0-0-10p0-10p0-10p12-         -0-0-10p0-0-0-10p0-|
-0-0-10p0-10p0-10p12- 3x then -0-0-10p0-0-0-10p0-|

gtr.2
----------------------------------------------------------------------|
----------------------------------------------------------------------|
-17----17--17/19--14----14--14-14--11----11-12----12---7----7----7--7-|
-x-----x---x------x-----x---x--x---x-----x--x-----x----x----x----x--x-|
-15----15--15-17--12----12--12-12--9-----9--10----10---5----5----5--5-|
----------------------------------------------------------------------|

add this at end of chorus (gtr.2)
  hold 1/2 bend-------|
----------------------|
----------------------|
-9^----9^-9^-9^-9^-9--|
-x-----x--x--x--x--x--|
-7^----7^-7^-7^-7^-7--|
----------------------|

break (ring)
-0----------|
-0----------|
-10---------|
-9----------|
-8----------|
-8----------|

(MAYDAY!!!!!!!!!!!!)
----------------------------|
----------------------------|
--------55--------44--------|
--------44--------33--------|
--3-2-0-33xx3-2-0-22xx3-xx3-|
--3-2-0---xx3-2-0---xx3-xx3-| (this is also played as the last riff)
          ..        ..  ..

the 2nd verse is relatively similar to the 1st except there are 2 muted notes in between 
staccato notes like so:
----------|
----------|
10-10-10--|
9--9--9---|
8xx8xx8xx-
8xx8xx8xx-


like I said, the last riff is tabbed above

this is my first tab, but I couldn't find a correct version of this tab so, you know...


Текст, аккорды и табулатура для песни "Worms Of The Earth", исполняет "Finch".
Используемые в песне аккорды можно найти в разделе Как брать аккорды. Аккорды для шестиструнной гитары. Другие песни можно найти на нашем сайте, воспользовавшись алфавитным указателем вверху страницы.


 
Ошибка в тексте? Выделите ошибку и нажмите Ctrl+Enter