this is the tab of 'what it is to burn', its probably not the best tab of it in the world 
but it works

its got the strings intro.....
 
Chorus
   C#                    A# 
E--------------------------------------------------------
B--------------------------------------------------------
G---6-----5-55-666--10--------5--55-666-8888-8888--------
D---6---------------------8------------------------------
A---4---------------------8------------------------------
E-------------------------6------------------------------

   G#             F#
E--------------------------------------------------------
B--------------------------------------------------------
G-----------5-55-666-6666666666666666--------------------
D---6--------------4-------------------------------------
A---6--------------4-------------------------------------
E---4--------------2-------------------------------------

Verse
    C#     G#          F#
E----6--4-----6--4---------------------------------------
B-------------------------6-----6-----6-----6-----6-----6
G---------------------------6-----6-----------6-----6----
D-----------------------6-----6-----6-----6-----6-----6--
A---4----------------------------------------------------
E-----------4--------------------------------------------

E--------------------------------------------------------
B--------------------------------------------------------
G---8--6--5-5h6-----8--6--5-5h6--------------------------
D--------------------------------------------------------

Chorus
Verse
Chorus

Bridge
E--------------------------------------------------------
B---------------9-----------9-----6-----9------6---------
G--------------------------------------------------------
D---6-----3-----------3----------------------------------
A--------------------------------------------------------
E--------------------------------------------------------

    C#                     G#
E-------------------|  E-------------------|
B---9-7-6-7-6-4-6---|  B---9-7-6-7-6-4-6---|


Текст, аккорды и табулатура для песни "What It Is To Burn", исполняет "Finch".
Используемые в песне аккорды можно найти в разделе Как брать аккорды. Аккорды для шестиструнной гитары. Другие песни можно найти на нашем сайте, воспользовавшись алфавитным указателем вверху страницы.


Слушать онлайн What It Is To Burn


FinchWhat It Is To Burn на Яндекс.Музыке


 
Ошибка в тексте? Выделите ошибку и нажмите Ctrl+Enter