Finch
Three Simple Words


Guitar 1
                                                          
D#||--------------------------|--------------------------|
A#||--------------------------|--------------------------|
F#||*--6----6--6--6--6--6--6--|--6--6--6--6--6--6--6--6--|
C#||*--6----6--6--6--6--6--6--|--6--6--6--6--6--6--6--6--|
G#||---4----4--4--4--4--4--4--|--4--4--4--4--4--4--4--4--|
C#||--------------------------|--------------------------|


                                                                               
-------------------------|--------------------------|-------------------------|
-------------------------|--------------------------|-------------------------|
--4----4--4--4--4--4--4--|--4--4--4--4--4--4--4--4--|-------------------------|
--4----4--4--4--4--4--4--|--4--4--4--4--4--4--4--4--|--4----4--4--4--4--4--4--|
--2----2--2--2--2--2--2--|--2--2--2--2--2--2--2--2--|--4----4--4--4--4--4--4--|
-------------------------|--------------------------|--4----4--4--4--4--4--4--|


                                                     
--------------------------|-------------------------|
--------------------------|-------------------------|
--------------------------|-------------------------|
--4--4--4--4--4--4--4--4--|--2----2--2--2--2--2--2--|
--4--4--4--4--4--4--4--4--|--2----2--2--2--2--2--2--|
--4--4--4--4--4--4--4--4--|--2----2--2--2--2--2--2--|


                                                                           
---------------------------||----------------------|----------------------|
---------------------------||----------------------|----------------------|
--------------------------*||----------------------|----------------------|
--2--2--2--2--2--2--2--2--*||--2----2----2----2----|--2----2----2----2----|
--2--2--2--2--2--2--2--2---||--2----2----2----2----|--2----2----2----2----|
--2--2--2--2--2--2--2--2---||--2----2----2----2----|--2----2----2----2----|


                                                      
--------------------------|--------------------------|
--------------------------|--------------------------|
--6--6--6--6--6--6--6--6--|--6--6--6--6--6--6--6--6--|
--6--6--6--6--6--6--6--6--|--6--6--6--6--6--6--6--6--|
--4--4--4--4--4--4--4--4--|--4--4--4--4--4--4--4--4--|
--------------------------|--------------------------|


                                                      
--------------------------|--------------------------|
--------------------------|--------------------------|
--4--4--4--4--4--4--4--4--|--4--4--4--4--4--4--4--4--|
--4--4--4--4--4--4--4--4--|--4--4--4--4--4--4--4--4--|
--2--2--2--2--2--2--2--2--|--2--2--2--2--2--2--2--2--|
--------------------------|--------------------------|


                                                      
--------------------------|--------------------------|
--------------------------|--------------------------|
--------------------------|--------------------------|
--4--4--4--4--4--4--4--4--|--4--4--4--4--4--4--4--4--|
--4--4--4--4--4--4--4--4--|--4--4--4--4--4--4--4--4--|
--4--4--4--4--4--4--4--4--|--4--4--4--4--4--4--4--4--|


                                                                                
--------------------------|------------------------||--------------------------|
--------------------------|------------------------||--------------------------|
--------------------------|------------------------||*--6----6--6--6--6--6--6--|
--2--2--2--2--2--2--2--2--|--2--2--2----2--2--2----||*--6----6--6--6--6--6--6--|
--2--2--2--2--2--2--2--2--|--2--2--2----2--2--2----||---4----4--4--4--4--4--4--|
--2--2--2--2--2--2--2--2--|--2--2--2----2--2--2----||--------------------------|


                                                                                
--------------------------|-------------------------|--------------------------|
--------------------------|-------------------------|--------------------------|
--6--6--6--6--6--6--6--6--|--4----4--4--4--4--4--4--|--4--4--4--4--4--4--4--4--|
--6--6--6--6--6--6--6--6--|--4----4--4--4--4--4--4--|--4--4--4--4--4--4--4--4--|
--4--4--4--4--4--4--4--4--|--2----2--2--2--2--2--2--|--2--2--2--2--2--2--2--2--|
--------------------------|-------------------------|--------------------------|


                                                                            
-------------------------|--------------------------|----------------------|
-------------------------|--------------------------|----------------------|
-------------------------|--------------------------|----------------------|
--4----4--4--4--4--4--4--|--4--4--4--4--4--4--4--4--|--2----2----2----2----|
--4----4--4--4--4--4--4--|--4--4--4--4--4--4--4--4--|--2----2----2----2----|
--4----4--4--4--4--4--4--|--4--4--4--4--4--4--4--4--|--2----2----2----2----|


                                                                                
-----------------------||---------------------------|--------------------------|
-----------------------||---------------------------|--------------------------|
----------------------*||*--------------------------|--------------------------|
--2----2----2----2----*||*--7--7--7--7--7--7--7--7--|--7--7--7--7--7--7--7--7--|
--2----2----2----2-----||---7--7--7--7--7--7--7--7--|--7--7--7--7--7--7--7--7--|
--2----2----2----2-----||---7--7--7--7--7--7--7--7--|--7--7--7--7--7--7--7--7--|


                                                      
--------------------------|--------------------------|
--------------------------|--------------------------|
--6--6--6--6--6--6--6--6--|--6--6--6--6--6--6--6--6--|
--6--6--6--6--6--6--6--6--|--6--6--6--6--6--6--6--6--|
--4--4--4--4--4--4--4--4--|--4--4--4--4--4--4--4--4--|
--------------------------|--------------------------|


                                                      
--------------------------|--------------------------|
--------------------------|--------------------------|
--------------------------|--------------------------|
--2--2--2--2--2--2--2--2--|--2--2--2--2--2--2--2--2--|
--2--2--2--2--2--2--2--2--|--2--2--2--2--2--2--2--2--|
--2--2--2--2--2--2--2--2--|--2--2--2--2--2--2--2--2--|


                                                        
--------------------------|---------------------------||
--------------------------|---------------------------||
--------------------------|--------------------------*||
--4--4--4--4--4--4--4--4--|--4--4--4--4--4--4--4--4--*||
--4--4--4--4--4--4--4--4--|--4--4--4--4--4--4--4--4---||
--4--4--4--4--4--4--4--4--|--4--4--4--4--4--4--4--4---||


                                                                                
--------------------------|--------------------------|-------------------------|
--------------------------|--------------------------|-------------------------|
*--6----6--6--6--6--6--6--|--6--6--6--6--6--6--6--6--|--4----4--4--4--4--4--4--|
*--6----6--6--6--6--6--6--|--6--6--6--6--6--6--6--6--|--4----4--4--4--4--4--4--|
---4----4--4--4--4--4--4--|--4--4--4--4--4--4--4--4--|--2----2--2--2--2--2--2--|
--------------------------|--------------------------|-------------------------|


                                                                                
--------------------------|-------------------------|--------------------------|
--------------------------|-------------------------|--------------------------|
--4--4--4--4--4--4--4--4--|-------------------------|--------------------------|
--4--4--4--4--4--4--4--4--|--4----4--4--4--4--4--4--|--4--4--4--4--4--4--4--4--|
--2--2--2--2--2--2--2--2--|--4----4--4--4--4--4--4--|--4--4--4--4--4--4--4--4--|
--------------------------|--4----4--4--4--4--4--4--|--4--4--4--4--4--4--4--4--|


                                                                            
----------------------|-----------------------||---------------------------|
----------------------|-----------------------||---------------------------|
----------------------|----------------------*||*--------------------------|
--2----2----2----2----|--2----2----2----2----*||*--7--7--7--7--7--7--7--7--|
--2----2----2----2----|--2----2----2----2-----||---7--7--7--7--7--7--7--7--|
--2----2----2----2----|--2----2----2----2-----||---7--7--7--7--7--7--7--7--|


                                                      
--------------------------|--------------------------|
--------------------------|--------------------------|
--------------------------|--6--6--6--6--6--6--6--6--|
--7--7--7--7--7--7--7--7--|--6--6--6--6--6--6--6--6--|
--7--7--7--7--7--7--7--7--|--4--4--4--4--4--4--4--4--|
--7--7--7--7--7--7--7--7--|--------------------------|


                                                      
--------------------------|--------------------------|
--------------------------|--------------------------|
--6--6--6--6--6--6--6--6--|--------------------------|
--6--6--6--6--6--6--6--6--|--2--2--2--2--2--2--2--2--|
--4--4--4--4--4--4--4--4--|--2--2--2--2--2--2--2--2--|
--------------------------|--2--2--2--2--2--2--2--2--|


                                                      
--------------------------|--------------------------|
--------------------------|--------------------------|
--------------------------|--------------------------|
--2--2--2--2--2--2--2--2--|--4--4--4--4--4--4--4--4--|
--2--2--2--2--2--2--2--2--|--4--4--4--4--4--4--4--4--|
--2--2--2--2--2--2--2--2--|--4--4--4--4--4--4--4--4--|


                           3x                                         
---------------------------||---------------------|------------------|
---------------------------||---------------------|------------------|
--------------------------*||*--6--6--------------|------------------|
--4--4--4--4--4--4--4--4--*||*--6--6--------------|------------------|
--4--4--4--4--4--4--4--4---||---4--4--------------|------------------|
--4--4--4--4--4--4--4--4---||---------------------|------------------|


                                                                  
--------------------|-------------------||-----------------------|
--------------------|-------------------||-----------------------|
--6--6--------------|------------------*||*--6--6----6--6--------|
--6--6--------------|------------------*||*--6--6----6--6--------|
--4--4--------------|-------------------||---4--4----4--4--------|
--------------------|-------------------||-----------------------|


                                                                       
----------------------|----------------------|-----------------------||
----------------------|----------------------|-----------------------||
--6--6------6--6------|--6--6----6--6--------|--6--6------6--6------*||
--6--6------6--6------|--6--6----6--6--------|--6--6------6--6------*||
--4--4------4--4------|--4--4----4--4--------|--4--4------4--4-------||
----------------------|----------------------|-----------------------||


                                     3x                            
---------|--------|--------|---------||---------------------------|
---------|--------|--------|---------||---------------------------|
*--------|--------|--------|--------*||*--------------------------|
*--------|--------|--------|--------*||*--7--7--7--7--7--7--7--7--|
---------|--------|--------|---------||---7--7--7--7--7--7--7--7--|
---------|--------|--------|---------||---7--7--7--7--7--7--7--7--|


                                                      
--------------------------|--------------------------|
--------------------------|--------------------------|
--------------------------|--6--6--6--6--6--6--6--6--|
--7--7--7--7--7--7--7--7--|--6--6--6--6--6--6--6--6--|
--7--7--7--7--7--7--7--7--|--4--4--4--4--4--4--4--4--|
--7--7--7--7--7--7--7--7--|--------------------------|


                                                      
--------------------------|--------------------------|
--------------------------|--------------------------|
--6--6--6--6--6--6--6--6--|--------------------------|
--6--6--6--6--6--6--6--6--|--2--2--2--2--2--2--2--2--|
--4--4--4--4--4--4--4--4--|--2--2--2--2--2--2--2--2--|
--------------------------|--2--2--2--2--2--2--2--2--|


                                                      
--------------------------|--------------------------|
--------------------------|--------------------------|
--------------------------|--------------------------|
--2--2--2--2--2--2--2--2--|--4--4--4--4--4--4--4--4--|
--2--2--2--2--2--2--2--2--|--4--4--4--4--4--4--4--4--|
--2--2--2--2--2--2--2--2--|--4--4--4--4--4--4--4--4--|


                           3x                                        
---------------------------||-------------------|------------------||
---------------------------||-------------------|------------------||
--------------------------*||-------------------|------------------||
--4--4--4--4--4--4--4--4--*||--7----------------|------------------||
--4--4--4--4--4--4--4--4---||--7----------------|------------------||
--4--4--4--4--4--4--4--4---||--7----------------|------------------||



Guitar 2
                                                                             
D#||-------|------|------|------|------|------|------|-------||------|------|
A#||-------|------|------|------|------|------|------|-------||------|------|
F#||*------|------|------|------|------|------|------|------*||------|------|
C#||*------|------|------|------|------|------|------|------*||------|------|
G#||-------|------|------|------|------|------|------|-------||------|------|
C#||-------|------|------|------|------|------|------|-------||------|------|


                                                                               
------|------|------|------|------|------|------|------||---------------------|
------|------|------|------|------|------|------|------||---------------------|
------|------|------|------|------|------|------|------||*--------------------|
------|------|------|------|------|------|------|------||*--------------------|
------|------|------|------|------|------|------|------||-----------4h-6------|
------|------|------|------|------|------|------|------||---------------------|


                                                               
--------------------|--------------------|--------------------|
--------------------|--------------------|--------------------|
--------------------|--------------------|--------------------|
--------------------|--------------------|--------------------|
----------4h-6------|----------2h-4------|----------2h-4------|
--------------------|--------------------|--------------------|


                                                                     
--------------------|--------------------|--------------------------|
--------------------|--------------------|--------------------------|
--------------------|--------------------|--------------------------|
--------------------|--------------------|--------------------------|
--------------------|--------------------|--------------------------|
----------4h-6------|----------4h-6------|--2--2--2--2--2--2--2--2--|


                                                                        
---------------------------||-----|----|----|----|----|----|----|-----||
---------------------------||-----|----|----|----|----|----|----|-----||
--------------------------*||*----|----|----|----|----|----|----|----*||
--2--2--2--2--2--2--2--2--*||*----|----|----|----|----|----|----|----*||
--2--2--2--2--2--2--2--2---||-----|----|----|----|----|----|----|-----||
--2--2--2--2--2--2--2--2---||-----|----|----|----|----|----|----|-----||


                                                                
---------------------|--------------------|--------------------|
---------------------|--------------------|--------------------|
*--------------------|--------------------|--------------------|
*--------------------|--------------------|--------------------|
-----------4h-6------|----------4h-6------|----------2h-4------|
---------------------|--------------------|--------------------|


                                                               
--------------------|--------------------|--------------------|
--------------------|--------------------|--------------------|
--------------------|--------------------|--------------------|
--------------------|--------------------|--------------------|
----------2h-4------|--------------------|--------------------|
--------------------|----------4h-6------|----------4h-6------|


                                                                             
--------------------------|---------------------------||-----|----|----|----|
--------------------------|---------------------------||-----|----|----|----|
--------------------------|--------------------------*||*----|----|----|----|
--------------------------|--2--2--2--2--2--2--2--2--*||*----|----|----|----|
--------------------------|--2--2--2--2--2--2--2--2---||-----|----|----|----|
--2--2--2--2--2--2--2--2--|--2--2--2--2--2--2--2--2---||-----|----|----|----|


                    3x                                                       
----|----|----|-----||---------------------------|--------------------------|
----|----|----|-----||---------------------------|--------------------------|
----|----|----|----*||*--------------------------|--9--9--9--9--8--8--8--8--|
----|----|----|----*||*--------------------------|--------------------------|
----|----|----|-----||---4--4--4--4--4--4--4--4--|--------------------------|
----|----|----|-----||---------------------------|--------------------------|


                                                        
--------------------------|---------------------------||
--------------------------|---------------------------||
--------------------------|--9--9--9--9--8--8--8--8--*||
--------------------------|--------------------------*||
--4--4--4--4--4--4--4--4--|---------------------------||
--------------------------|---------------------------||


                                                       
---------------------------|--------------------------|
---------------------------|--------------------------|
*--------------------------|--9--9--9--9--8--8--8--8--|
*--------------------------|--------------------------|
---4--4--4--4--4--4--4--4--|--------------------------|
---------------------------|--------------------------|


                                                        
--------------------------|---------------------------||
--------------------------|---------------------------||
--------------------------|--9--9--9--9--8--8--8--8--*||
--------------------------|--------------------------*||
--4--4--4--4--4--4--4--4--|---------------------------||
--------------------------|---------------------------||


                                                                             
-------------------------|-------------------------|------------------------|
-------------------------|-------------------------|------------------------|
*--6--6----6--6----6--6--|-------------------------|------------------------|
*--6--6----6--6----6--6--|----2--2--2--2--2--2--2--|--7--7----7--7----7--7--|
---4--4----4--4----4--4--|----2--2--2--2--2--2--2--|--7--7----7--7----7--7--|
-------------------------|----2--2--2--2--2--2--2--|--7--7----7--7----7--7--|


                          3x                                         3x     
--------------------------||-----|----|----|----|----|----|----|-----||----|
--------------------------||-----|----|----|----|----|----|----|-----||----|
-------------------------*||*----|----|----|----|----|----|----|----*||----|
----2--2--2--2--2--2--2--*||*----|----|----|----|----|----|----|----*||----|
----2--2--2--2--2--2--2---||-----|----|----|----|----|----|----|-----||----|
----2--2--2--2--2--2--2---||-----|----|----|----|----|----|----|-----||----|


      
----||
----||
----||
----||
----||
----||


Текст, аккорды и табулатура для песни "Three Simple Words", исполняет "Finch".
Используемые в песне аккорды можно найти в разделе Как брать аккорды. Аккорды для шестиструнной гитары. Другие песни можно найти на нашем сайте, воспользовавшись алфавитным указателем вверху страницы.


 
Ошибка в тексте? Выделите ошибку и нажмите Ctrl+Enter