Song- Post Script
Artist- Finch
Album- What it is to Burn
Tuning- Db-Ab-Db-Gb-Bb-Eb
Tabber- Dan

+ = harmonic
*NOTE*  play the harmonics on the frets, not between them. (If you didn't know that already)

Intro (Guitar 1)
Eb----------------------------------------------
Bb----------------------------------------------
Gb----------------------------------------------
Db----------------------------------------------
Ab------+4-+4-+5-+5-----+4-+4-+5-+5-----+4-+4---
Db-+5-+5-----------+5-+5-----------+5-+5--------

Intro (Guitar 2)
Eb----------------------------------------------------------------------------
Bb----------------------------------------------------------------------------
Gb-7-7-7-7-7-7-7-7-14-14-14-14-14-14-14-14-14-14-14-14-14-14-14-14-14-14-14-14
Db-5-5-5-5-5-5-5-5-0--0--0--0--0--0--0--0--9--9--9--9--9--9--9--9--9--9--9--9-
Ab-5-5-5-5-5-5-5-5-0--0--0--0--0--0--0--0--9--9--9--9--9--9--9--9--9--9--9--9-
Db-5-5-5-5-5-5-5-5-0--0--0--0--0--0--0--0--9--9--9--9--9--9--9--9--9--9--9--9-

Eb----------------
Bb----------------
Gb-9-9-9-9-9-9-9-9
Db-7-7-7-7-7-7-7-7
Ab-7-7-7-7-7-7-7-7
Db-7-7-7-7-7-7-7-7

(Guitar 1)
Eb----------------------------------------------
Bb----------------------------------------------
Gb----------------------------------------------
Db----------------------------------------------
Ab------+4-+4-+5-+5-----+4-+4-+5-+5-----+4-+4---
Db-+5-+5-----------+5-+5-----------+5-+5--------

Verse
Eb------------------------------------
Bb------------------------------------
Gb------------------------------------
Db-5-5-5-----0-0-0-----9-9-9-----7-7-7
Ab-5-5-5-----0-0-0-----9-9-9-----7-7-7
Db-5-5-5-----0-0-0-----9-9-9-----7-7-7  (Now do a pick slide down the strings)

Eb---------------------------------------------------------------
Bb---------------------------------------------------------------
Gb---------------------------------------------------------------
Db-5-5-5--------------0-0-0--------------9-9-9--------------7-7-7
Ab-5-5-5--------------0-0-0--------------9-9-9--------------7-7-7
Db-5-5-5-+5+5+5+5+5+5-0-0-0-+5+5+5+5+5+5-9-9-9-+5+5+5+5+5+5-7-7-7

Chorus (Guitar 1)
Eb------------------------------------------------------------------
Bb------------------------------------------------------------------
Gb------------------------------------------------------------------
Db------12---------12---------12---------12---------12---------12---
Ab-9-10-------9-10-------9-10-------9-10-------9-10-------9-10------
Db---------0----------0----------0----------0----------0----------0-

Chorus (Guitar 2)
Eb------------------------------------------------
Bb------------------------------------------------
Gb------------------------------------------------
Db-9-----0-----9-----0-0-4-4-5-5-0-0-4-4-5-5-0-0-4
Ab-9-----0-----9-----0-0-4-4-5-5-0-0-4-4-5-5-0-0-4
Db-9-----0-----9-----0-0-4-4-5-5-0-0-4-4-5-5-0-0-4

Repeat Intro
Repeat Verse
Repeat Chorus
*At the end of the second chorus play this*
Eb---------------------------------------------------------------
Bb---------------------------------------------------------------
Gb---------------------------------------------------------------
Db-0-0-4-4-5-5-0-0-4-4-5-5-0-0-4-0-0-4-4-5-5-0-0-4-4-5-5-0-0-4-0-
Ab-0-0-4-4-5-5-0-0-4-4-5-5-0-0-4-0-0-4-4-5-5-0-0-4-4-5-5-0-0-4-0-
Db-0-0-4-4-5-5-0-0-4-4-5-5-0-0-4-0-0-4-4-5-5-0-0-4-4-5-5-0-0-4-0-

Bridge (Clean)
Eb-----------------------------------------
Bb-----------------------------------------
Gb--7---7---7---7---7--7---7-----7---7---7-
Db---0---0---0---0------4---4-----5---5---4
Ab-----------------------------------------
Db-0---0---0---0---0--4---4---4-5---5---4--

Kick in the distortion here
Eb---------------------------------------
Bb---------------------------------------
Gb---------------------------------------
Db-0-00-00-00-00-00-00-00-444-4---555-4--
Ab-0-00-00-00-00-00-00-00-444---5-555---5
Db-0-00-00-00-00-00-00-00-444-----555---- 

Repeat this 4 times and on the fourth time play this
Eb-----------------------------------------------------------
Bb-----------------------------------------------------------
Gb-----------------------------------------------------------
Db-0-00-00-00-00-00-00-00-444-4---555-4---444-4----555-4---0-
Ab-0-00-00-00-00-00-00-00-444---5-555---5-444----5-555---5-0-
Db-0-00-00-00-00-00-00-00-444-----555-----444------555-----0-

There ya go, its a kick ass song so have fun playing it!!


Текст, аккорды и табулатура для песни "Post Script", исполняет "Finch".
Используемые в песне аккорды можно найти в разделе Как брать аккорды. Аккорды для шестиструнной гитары. Другие песни можно найти на нашем сайте, воспользовавшись алфавитным указателем вверху страницы.


 
Ошибка в тексте? Выделите ошибку и нажмите Ctrl+Enter