Artist: Finch
Song: The New Kid

Tabber:  Larry Larmeu ([email protected])

The other tabs for this song sucked.  This is how you really play it.

Intro 
eb|-------------------------------------------------------|
Bb|-------------------------------------------------------|
Gb|-----11----11--11--11--11--11--11-/--12--12--12-/--11--|
Db|-----X-----X---X---X---X---X---X--/--X---X---X--/--X---|
Ab|-----9-----9---9---9---9---9---9--/--10--10--10-/--9---|
Db|-----0-----0---0---0---0---0---0--/--0---0---0--/--0---|

eb|---------------------------------------------------------------|
Bb|---------------------------------------------------------------|
Gb|-----11----11--11--11--11--11--11-/--12--12--12-/--11-11-/-7---|
Db|-----X-----X---X---X---X---X---X--/--X---X---X--/--X--X--/-X---|
Ab|-----9-----9---9---9---9---9---9--/--10--10--10-/--9--9--/-5---|
Db|-----0-----0---0---0---0---0---0--/--0---0---0--/--0--0--/-0---|

eb|-------------------------------------------------------|
Bb|-------------------------------------------------------|
Gb|-----11----11--11--11--11--11--11-/--12--12--12-/--11--|
Db|-----X-----X---X---X---X---X---X--/--X---X---X--/--X---|
Ab|-----9-----9---9---9---9---9---9--/--10--10--10-/--9---|
Db|-----0-----0---0---0---0---0---0--/--0---0---0--/--0---|

The next time you play it like this... you play it pretty much like this until
the verse comes... these are the chords but the strumming changes slightly.

eb|---------------------------------------------------------------------|
Bb|---------------------------------------------------------------------|
Gb|-----11----11--11--11--11--11--11-/--12--12--12-/--11-11-/-7--6-6-7--|
Db|-----X-----X---X---X---X---X---X--/--X---X---X--/--X--X--/-X--X-X-X--|
Ab|-----9-----9---9---9---9---9---9--/--10--10--10-/--9--9--/-5--4-4-5--|
Db|-----0-----0---0---0---0---0---0--/--0---0---0--/--0--0--/-0--0-0-0--|

On Guitar 2, you play it exactly like that except when Guitar 1 is playing
the 05x7 chord you play this


eb|--------------|
Bb|--------------|
Gb|-7-6----7-6---|
Db|-----7------7-|
Ab|--------------|
Db|--------------|

Verse

eb|--------------------------------------------------------------|
Bb|--------------------------------------------------------------|
Gb|--11--11/7------9--------7---7--7/14-12--12h14/(gradual bend)-|
Db|--------------7-----7-----------------------------------------|
Ab|------------5-----5----5---5----------------------------------|
Db|--------------------------------------------------------------|


Chorus: same as intro with both guitar parts

Bridge

eb|--------------------------------------------------|
Bb|--------------------------------------------------|
Gb|--11---------7-6----7-6---7-6-7-7h9h7---6-6h7h6---|
Db|--X--X 30--------7------7-------------7---------7-|  X 2
Ab|--9-----------------------------------------------|
Db|--------------------------------------------------|

eb|-14-----14-----------------------------|
Bb|----15-----15--------------------------|
Gb|--------------------------9-----9------|
Db|------------------------7-----7---7----|  X 2
Ab|---------------10h12--5-----5-------5--|
Db|---------------------------------------|

Then Chorus X 4 to end it!


Текст, аккорды и табулатура для песни "New Kid", исполняет "Finch".
Используемые в песне аккорды можно найти в разделе Как брать аккорды. Аккорды для шестиструнной гитары. Другие песни можно найти на нашем сайте, воспользовавшись алфавитным указателем вверху страницы.


 
Ошибка в тексте? Выделите ошибку и нажмите Ctrl+Enter