Letters To You (Acoustic) - Finch
Standard Tuning

Order of song
Intro (16x)
Verse
Pre-Chorus
Chorus
Intro (2x)
Verse
Pre-Chorus
Chorus
Intro (4x)
Bridge
Chorus

Intro
|---------------------------------------------------|
|---------------------------------------------------|
|--7-----6-----9-----11-----11-------repeat that----| 
|----0-----0-----0------0------0------shizz--16-----|
|------0-----0-----0------0------0------times-------|
|---------------------------------------------------|

Verse
|--0--0--0--0---------------------------------------|
|--3--0--3--0---------------------------------------|
|--2--2--0--2-----Strum each chord 16 times---------| 
|--0--4--0--2---------------------------------------|
|--0--4--2--0---------------------------------------|
|--x--x--x--x---------------------------------------|

Pre-Chorus
|--x--x--x--x---------------------------------------|
|--x--x--x--x---------------------------------------|
|--6--7--7--6-----Strum each chord 16 times---------|
|--x--x--7--7---------------------------------------|
|--4--5--5--5---------------------------------------|
|--x--x--x--x---------------------------------------|

CHORUS
|--x--x--0--x---------------------------------------|
|--x--x--3--x---------------------------------------|
|--4--x--2--6-----Strum each chord 16 times---------|
|--4--5--0--6---------------------------------------|
|--2--5--0--4---------------------------------------|
|--x--3--x--x---------------------------------------|

Bridge
|--x--x---------------------------------------------|
|--x--x---------------------------------------------|
|--9--7-----------Strum each chord 16 times---------|
|--x--x---------------------------------------------|
|--7--5---------------------------------------------|
|--x--x---------------------------------------------|


Текст, аккорды и табулатура для песни "Letters To You Acoustic", исполняет "Finch".
Используемые в песне аккорды можно найти в разделе Как брать аккорды. Аккорды для шестиструнной гитары. Другие песни можно найти на нашем сайте, воспользовавшись алфавитным указателем вверху страницы.


Слушать онлайн Letters To You


FinchLetters To You на Яндекс.Музыке


 
Ошибка в тексте? Выделите ошибку и нажмите Ctrl+Enter