Finch - Letters To You

All Guitars Tuned Down
Half A Step With Dropped D

6.Db  3.Gb
5.Ab  2.Bb
4.Db  1.eb

Intro
Gtr 1 (Dist)
eb|-0-0-0-0-0-0-0-0-0-0-0-0-0-0-0-------------------------------------------------|
Bb|-3-3-3-3-3-3-3-3-3-3-3-3-3-3-3-------------------------------------------------|
Gb|-2-2-2-2-2-2-2-2-2-2-2-2-2-2-2-------------------------------------------------|
Db|-------------------------------------------------------------------------------|
Ab|-------------------------------------------------------------------------------|
Db|-------------------------------------------------------------------------------|

Verse
Gtr 1
eb|---------------------------------------------------------------------------------------------|
Bb|---------------------------------------------------------------------------------------------|
Gb|--7--7--7--7-------------7--7--------7--7--------7-7---7--7-/11----------7--------7--------7-|
Db|--x--x--x--x------4---4--4--4--5--5--5--5--7--7--7-7---x--x-/-x----4--4--4--5--5--5--7--7--7-|
Ab|--5--5--5--5------4---4--4--4--5--5--5--5--7--7--7-7---5--5-/-9----4--4--4--5--5--5--7--7--7-|
Db|------------------4---4--------5--5--------7--7--------------------4--4-----5--5-----7--7----|

Gtr 2 (Dist)
   p.m----------------------------------------------------------------|
eb|---------------------------------------------------------------------------------|
Bb|---------------------------------------------------------------------------------|
Gb|---------------------------------------------------------------------------------|
Db|----------------------------------------------------2-2-2-2-2-2-2-2--------------|
Ab|------------------4-4-4-4-4-4-4-4--5-5-5-5-5-5-5-5--0-0-0-0-0-0-0-0--------------|
Db|-0-0-0-0-0-0-0-0--4-4-4-4-4-4-4-4--5-5-5-5-5-5-5-5-------------------------------|

Pre-Chorus
Gtr 1 
eb|-----------------------------------------------------------------------------------------------|
Bb|-----------------------------------------------------------------------------------------------|
Gb|--------------------------------------------------------11-11-11-11-11-11-----12-12-11-11-11---|
Db|-----------------------------------------------------0---x--x--x--x--x--x--0---x--x--x--x--x---|
Ab|-----------------------------------------------------0---9--9--9--9--9--9--0--10-10--9--9--9---|
Db|-----------------------------------------------------0---------------------0-------------------|

Gtr 2
eb|---------------------------------------------------------------------------------|
Bb|-------------------------------------------------------------3------3------3-----|
Gb|-------------------------------------------------------------2------2------2-----|
Db|--4-4--4-4--4-4--4-4--4-4--5-5--5-5--5-5--5-5--5-5---0--0----0------0------0-----|
Ab|--4-4--4-4--4-4--4-4--4-4--5-5--5-5--5-5--5-5--5-5---0--0----0------0------0-----|
Db|--4-4--4-4--4-4--4-4--4-4--5-5--5-5--5-5--5-5--5-5---0--0----0------0------0-----|

Chorus
Gtrs 1&2
eb|---------------------------------------------0--0----------------------------|
Bb|---------------------------------------------3--3----------------------------|
Gb|---------------------------------------------2--2----------6---6-------------|
Db|--9--9-9--9--9-9---5--5-5--7--7-7----0--0-0--0--0---4--4-4-4---4-------------|
Ab|--9--9-9--9--9-9---5--5-5--5--5-5----0--0-0---------4--4-4-4---4-------------|
Db|--9--9-9--9--9-9---5--5-5--5--5-5----0--0-0---0-0---4--4-4-4---4-------------|

Gtr 1
eb|-0-0-0-0-0-0-0-0-0-0-0-0-0-0-0---------------------------------------------------|
Bb|-3-3-3-3-3-3-3-3-3-3-3-3-3-3-3---------------------------------------------------|
Gb|-2-2-2-2-2-2-2-2-2-2-2-2-2-2-2---------------------------------------------------|
Db|---------------------------------------------------------------------------------|
Ab|---------------------------------------------------------------------------------|
Db|---------------------------------------------------------------------------------|

Gtr 1
eb|---------------------------------------------------------------------------------------------|
Bb|---------------------------------------------------------------------------------------------|
Gb|--7--7--7--7-------------7--7--------7--7--------7-7---7--7-/11----------7--------7--------7-|
Db|--x--x--x--x------4---4--4--4--5--5--5--5--7--7--7-7---x--x-/-x----4--4--4--5--5--5--7--7--7-|
Ab|--5--5--5--5------4---4--4--4--5--5--5--5--7--7--7-7---5--5-/-9----4--4--4--5--5--5--7--7--7-|
Db|------------------4---4--------5--5--------7--7--------------------4--4-----5--5-----7--7----|

Gtr 2
Harm-----|
   p.m----------------------------------------------------------------|
eb|------------------------------------------------------------------------------------|
Bb|---------------------------------------------------------------------------------|
Gb|---------------------------------------------------------------------------------|
Db|-------------------------------------------------------2-2-2-2-2-2-2-2--------------|
Ab|---------------------4-4-4-4-4-4-4-4--5-5-5-5-5-5-5-5--0-0-0-0-0-0-0-0--------------|
Db|----0-0-0-0-0-0-0-0--4-4-4-4-4-4-4-4--5-5-5-5-5-5-5-5-------------------------------|

Gtr 1
eb|-----------------------------------------------------------------------------------------------|
Bb|-----------------------------------------------------------------------------------------------|
Gb|--------------------------------------------------------11-11-11-11-11-11-----12-12-11-11-11---|
Db|-----------------------------------------------------0---x--x--x--x--x--x--0---x--x--x--x--x---|
Ab|-----------------------------------------------------0---9--9--9--9--9--9--0--10-10--9--9--9---|
Db|-----------------------------------------------------0---------------------0-------------------|

Gtr 2
eb|---------------------------------------------------------------------------------|
Bb|-------------------------------------------------------------3------3------3-----|
Gb|-------------------------------------------------------------2------2------2-----|
Db|--4-4--4-4--4-4--4-4--4-4--5-5--5-5--5-5--5-5--5-5---0--0----0------0------0-----|
Ab|--4-4--4-4--4-4--4-4--4-4--5-5--5-5--5-5--5-5--5-5---0--0----0------0------0-----|
Db|--4-4--4-4--4-4--4-4--4-4--5-5--5-5--5-5--5-5--5-5---0--0----0------0------0-----|

Gtrs 1&2
eb|---------------------------------------------0--0----------------------------|
Bb|---------------------------------------------3--3----------------------------|
Gb|---------------------------------------------2--2----------6---6-------------|
Db|--9--9-9--9--9-9---5--5-5--7--7-7----0--0-0--0--0---4--4-4-4---4-------------|
Ab|--9--9-9--9--9-9---5--5-5--5--5-5----0--0-0---------4--4-4-4---4-------------|
Db|--9--9-9--9--9-9---5--5-5--5--5-5----0--0-0---0-0---4--4-4-4---4-------------|

eb|---------------------------------------------------------------------------------|
Bb|---------------------------------------------------------------------------------|
Gb|---7--7---7--7---7--7---7--7---7--7---7--7---7--7---7--7---7---------------------|
Db|---x--x---x--x---x--x---x--x---x--x---x--x---x--x---x--x---x---------------------|
Ab|---5--5---5--5---5--5---5--5---5--5---5--5---5--5---5--5---5---------------------|
Db|---------------------------------------------------------------------------------|

eb|---------------------------------------------------------------------------------|
Bb|---------------------------------------------------------------------------------|
Gb|---7--6-/--7-/--9---7---6-----------------------------------------------------|
Db|---x---x----x----x----x----x-----------------------------------------------------|
Ab|---5--4-/--5-/--7---5---4-----------------------------------------------------|
Db|---------------------------------------------------------------------------------|

eb|---------------------------------------------------------------------------------|
Bb|---------------------------------------------------------------------------------|
Gb|---7--7---7--7---7--7---7--7---7--7---7--7---7--7---7--7---7---------------------|
Db|---x--x---x--x---x--x---x--x---x--x---x--x---x--x---x--x---x---------------------|
Ab|---5--5---5--5---5--5---5--5---5--5---5--5---5--5---5--5---5---------------------|
Db|---------------------------------------------------------------------------------|

eb|---------------------------------------------------------------------------------|
Bb|---------------------------------------------------------------------------------|
Gb|--7-7-7-7-7-7-7-7-11-11-11-11-11-11-11-11--12-12-12-12-12-12-12-12-12-12-12-12---|
Db|--x-x-x-x-x-x-x-x--x--x--x--x--x--x--x--x---x--x--x--x--x--x--x--x--x--x--x--x---|
Ab|--5-5-5-5-5-5-5-5--9--9--9--9--9--9--9--9--10-10-10-10-10-10-10-10-10-10-10-10---|
Db|---------------------------------------------------------------------------------|

eb|---------------------------------------------------------------------------------|
Bb|---------------------------------------------------------------------------------|
Gb|---7--6-/--7-/--9---7---6-----------------------------------------------------|
Db|---x---x----x----x----x----x-----------------------------------------------------|
Ab|---5--4-/--5-/--7---5---4-----------------------------------------------------|
Db|---------------------------------------------------------------------------------|

Gtr 1
 w/Phaser-----------------------------------------------------------|
eb|---------------------------------------------0--0-------------------x-x-x-x---------|
Bb|---------------------------------------------3--3-------------------x-x-x-x---------|
Gb|---------------------------------------------2--2----------6---6----x-x-x-x---------|
Db|--9--9-9--9--9-9---5--5-5--7--7-7----0--0-0--0--0---4--4-4-4---4----x-x-x-x---------|
Ab|--9--9-9--9--9-9---5--5-5--5--5-5----0--0-0---------4--4-4-4---4----x-x-x-x---------|
Db|--9--9-9--9--9-9---5--5-5--5--5-5----0--0-0---0-0---4--4-4-4---4----x-x-x-x--22----|

Gtr 2
eb|--------------------------------------------------------------------x-x-x-x----------|
Bb|--------------------------------------------------------------------x-x-x-x----------|
Gb|--------------------------------------------------------------------x-x-x-x----------|
Db|--------------------------------------------------------------------x-x-x-x----------|
Ab|--------------------------------------------------------------------x-x-x-x----------|
Db|--------------------------------------------------------------------x-x-x-x--22-----|

Gtrs 1&2
eb|---------------------------------------------0--0----------------------------|
Bb|---------------------------------------------3--3----------------------------|
Gb|---------------------------------------------2--2----------6---6-------------|
Db|--9--9-9--9--9-9---5--5-5--7--7-7----0--0-0--0--0---4--4-4-4---4-------------|
Ab|--9--9-9--9--9-9---5--5-5--5--5-5----0--0-0---------4--4-4-4---4-------------|
Db|--9--9-9--9--9-9---5--5-5--5--5-5----0--0-0---0-0---4--4-4-4---4-------------|

Gtr 1
eb|-0-0-0-0-0-0-0-0-0-0-0-0-0-0-0-0-0-0-0-0-0-0-0-0-0-0-0--0------------------------|
Bb|-3-3-3-3-3-3-3-3-3-3-3-3-3-3-3-3-3-3-3-3-3-3-3-3-3-3-3--3------------------------|
Gb|-2-2-2-2-2-2-2-2-2-2-2-2-2-2-2-2-2-2-2-2-2-2-2-2-2-2-2--2------------------------|
Db|---------------------------------------------------------------------------------|
Ab|---------------------------------------------------------------------------------|
Db|---------------------------------------------------------------------------------|

Gtr 2
eb|---------------------------------------------------------------------------------|
Bb|---------------------------------------------------------------------------------|
Gb|--------------------------------------------------------7------------------------|
Db|---------------------------------0----------------------7------------------------|
Ab|---------------------------------0----------------------5------------------------|
Db|---------------------------------0-----------------------------------------------|


Текст, аккорды и табулатура для песни "Letters To You", исполняет "Finch".
Используемые в песне аккорды можно найти в разделе Как брать аккорды. Аккорды для шестиструнной гитары. Другие песни можно найти на нашем сайте, воспользовавшись алфавитным указателем вверху страницы.


Слушать онлайн Letters To You


FinchLetters To You на Яндекс.Музыке


 
Ошибка в тексте? Выделите ошибку и нажмите Ctrl+Enter