Intro
G|-------------------------------------------------------|
D|-------------------------------------------------------|
A|-xxxx--55--55--55--55--22--22--22--2~------------------|
E|-------------------------------------------------------|

Intro Cont'
G|-------------------------------------------------------|
D|-------------------------------------------------------|
A|-----------------------------------55-55-55-5~---------|
E|-3-3-3-3-3-3-3-3-3-3-3-3-3-3-3-3-----------------------|

Chorus
G|-------------------------------------------------------|
D|-----------77777777------------777755555---------------|
A|-88888888------------55555555-------------22222222-----|
E|-------------------------------------------------------|

Chorus Cont'
G|--------------------------------77554422---------------|
D|-----------7777777-------------------------------------|
A|-55555555------------555555555------------22222222-----|
E|-------------------------------------------------------|

Chorus Cont' 2
G|-------------------------------------------------------|
D|-44444444------------44442222--------------------------|
A|-----------22222222------------------------------------|
E|-------------------------------------------------------|

Post Chorus
G|-------------------------------------------------------|
D|-------------------------------------------------------|
A|-------------------------------------------------------|
E|-3-3-3-3-3-3-3-3-3-3-3-3-3-3-3-3-3----8-7-5-3----------|

Post Chorus Cont'
G|-------------------------------------------------------|
D|-------------------------------------------------------|
A|-55555555-2222-----------------------------5~----------|
E|----------------10-9-7-5-33333333-55555555-------------|

Chorus Ending
G|-------------------------------------------------------|
D|-------------------------------------------------------|
A|-55-55-55-55-543---------------------------------------|
E|-------------------------------------------------------|

Verse
G|-------------------------------------------------------|
D|-------------------------------------------------------|
A|-55-55-55-55-22-22-22-22-xxxx-55-55-55-55-22-22-22-2~--|
E|-------------------------------------------------------|


Текст, аккорды и табулатура для песни "Threesome", исполняет "Fenix Tx".
Используемые в песне аккорды можно найти в разделе Как брать аккорды. Аккорды для шестиструнной гитары. Другие песни можно найти на нашем сайте, воспользовавшись алфавитным указателем вверху страницы.


Слушать онлайн Threesome


Fenix TXThreesome на Яндекс.Музыке


 
Ошибка в тексте? Выделите ошибку и нажмите Ctrl+Enter