Fenix Tx
Flight 601(all i've got is time)
Fenix Tx
 x= palm mute
~vibrato
(tabbed by justin)
 
intro:                   
e---------------------------12----12--------------------------------------------
b-9--9--12-12----------------9------9---10----10---------------------------
g---9--9---9---9--x-3------------------------9------9-----------------------
a-----------------------------------------------------------------------------    
d----------------------------------------------------------------------------- 
E---------------------------------------------------------------------------X-3

verses:
e------------------------------------------------------------------------
b------------------------------------------------------------------------play 
this 2 times.on 
g-2-xxxxxx-4-xxxxxx-6-xxxxxxx-5-xxxxxx-4-xxxxxx-2------the third time dont 
a-2-xxxxxx-4-xxxxxx-6-xxxxxxx-5-xxxxxx-4-xxxxxx-2------palm mute the 
d-0-xxxxxx-2-xxxxxx-4-xxxxxxx-3-xxxxxx-2-xxxxxx-0-------553, and.442
E-------------------------------------------------------------------------
chorus
e-----------------------------------------------------------------------------
b-----------------------------------------------------------------------------
g-22-222-22-222-44-444-44-444-66-666-66-666-55-555-44-444--------------
a-22-222-22-222-44-444-44-444-66-666-66-666-55-555-44-444--------------
d-00-000-00-000-22-222-22-222-44-444-44-444-33-333-22-222-------------
E-----------------------------------------------------------------------------

Solo
e-------------------------------------------------12--10----------------
b---------8-99999-8-99999-9-1212121212--------12--10-----12
g---------8-99999-8-99999-9-1212121212------------------12---
a------------------------------------------------------------------------
d------------------------------------------------------------------------
e------------------------------------------------------------------------

e--------------------------------------------------12--10-------------------
b---------8-99999-8-99999-9-1212121212----------12--10----12~9
g---------8-99999-8-99999-9-1212121212-------------------12-------
a-----------------------------------------------------------------------------
d-----------------------------------------------------------------------------
e-----------------------------------------------------------------------------
after solo play this then go back to the chorus 
e-----------------------------------------------------------------------------
b---12--9---12--9---10--9---10--9------10--9---12--9---12--9---10--9-
g----------9--------9--------9-------9-----------9---------9--------9---------9
a-----------------------------------------------------------------------------
d-----------------------------------------------------------------------------
E-----------------------------------------------------------------------------


Текст, аккорды и табулатура для песни "Flight 601", исполняет "Fenix Tx".
Используемые в песне аккорды можно найти в разделе Как брать аккорды. Аккорды для шестиструнной гитары. Другие песни можно найти на нашем сайте, воспользовавшись алфавитным указателем вверху страницы.


 
Ошибка в тексте? Выделите ошибку и нажмите Ctrl+Enter