All My Fault
Fenix TX
Fenix Tx
Standard Tuning
Tabbed By: Mike, [email protected]
/ = slide up
 = slide down
x = pm
h = hit on

Intro
e------------------------------------------------------------------
B------------------------------------------------------------------
G-7xxxxxxxxxxxxxxxxxxxxxxxxxxx-7-7-xxxxxxxxxxxxxxxxxxxxxxxxxxxxxx--
D-7xxxxxxxxxxxxxxxxxxxxxxxxxxx-7-7-xxxxxxxxxxxxxxxxxxxxxxxxxxxxxx--
A-5xxxxxxxxxxxxxxxxxxxxxxxxxxx-5-5-xxxxxxxxxxxxxxxxxxxxxxxxxxxxxx--
E------------------------------------------------------------------

Intro (cont.)
e----------------------------------|
B----------------------------------|
G----------------------------------|
D-5xxxxxxxxxxxxxx-7xxxxxxxxxxxxxx--|
A-5xxxxxxxxxxxxxx-7xxxxxxxxxxxxxx--|
E-3xxxxxxxxxxxxxx-5xxxxxxxxxxxxxx--|

Intro 2
e----------------------------------------------------
B----------------------------------------------------
G-77777777777777777777777777777777-------------------
D-77777777777777777777777777777777-5555555555555555--
A-55555555555555555555555555555555-5555555555555555--
E----------------------------------3333333333333333—-

Intro 2 (cont)
e-------------------|
B-------------------|
G-------------------|
D-7777777777777777--|
A-7777777777777777--|
E-5555555555555555--|

Verse Gt 1
e------------------------------------------------------|
B------------------------------------------------------|
G-444444444444--------------777777777777---------------|
D-444444444444-555555555555-777777777777-777777777777--|
A-222222222222-555555555555-555555555555-777777777777--|
E--------------333333333333--------------555555555555—-|

Verse Gt 2
e------------------------------------------------------------|
B------------------------------------------------------------|
G-444444444444--------------7/99/1111/121211119966666666--|
D-444444444444-555555555555-x/xx/-x-x/-x-x-x-xxxxxxxxxxx--|
A-222222222222-555555555555-5/77/-9-9/1010-9-97744444444--|
E--------------333333333333----------------------------------|

Pre-Chorus
e----------------------------------------------------|
B----------------------------------------------------|
G-77777777-76----------76----------76-44444----------|
D-77777777-76-55555555-76-77777777-76-44444-555-777--|
A-55555555-54-55555555-54-77777777-54-22222-555-777--|
E-------------33333333----55555555----------333-555--|

Chorus
e--------------------------------------------------|
B--------------------------------------------------|
G-7xxxxxxxxxxxxxxxxxxxxxxxxxxxxxx------------------|
D-7xxxxxxxxxxxxxxxxxxxxxxxxxxxxxx-5xxxxxxxxxxxxxx--|
A-5xxxxxxxxxxxxxxxxxxxxxxxxxxxxxx-5xxxxxxxxxxxxxx--|
E---------------------------------3xxxxxxxxxxxxxx—-|

Chorus (cont)
e------------------------------------------------------------------|
B------------------------------------------------------------------|
G-----------------7xxxxxxxxxxxxxxxxxxxxxxxxxxxxxx------------------|
D-7xxxxxxxxxxxxxx-7xxxxxxxxxxxxxxxxxxxxxxxxxxxxxx-5xxxxxxxxxxxxxx--|
A-7xxxxxxxxxxxxxx-5xxxxxxxxxxxxxxxxxxxxxxxxxxxxxx-5xxxxxxxxxxxxxx--|
E-5xxxxxxxxxxxxxx---------------------------------3xxxxxxxxxxxxxx--|

Chorus (cont)
e------------------|
B------------------|
G------------------|
D-777777777777777--|
A-777777777777777--|
E-555555555555555--|

(Verse)

Solo Gt 1 (Gt 2 plays pre-chorus under solo)
e------------------------------------------------------
B-----7-8—-7-8-10—-8-7-8—-7-8--8h7---------------------
G-7-9------------------------------9-7—-7-6-7-9-7-6-6--
D------------------------------------------------------
A------------------------------------------------------
E------------------------------------------------------

Solo (cont)
e--------------------------------------------------------
B---------8-7-8-10-8-7-8-7-10-8-7-8--------------7-8-10--
G---6-7-6---------------------------9-7-6--6-7-9---------
D-9------------------------------------------------------
A--------------------------------------------------------
E--------------------------------------------------------

Solo (cont)
e---------999-101010-121212-10h9-------------------------
B-/101010------------------------12-10—-10-8-10-8-7-8-7--
G--------------------------------------------------------
D--------------------------------------------------------
A--------------------------------------------------------
E--------------------------------------------------------

Solo (cont)
e-------------------------------------------------------------|
B---------10-8-7-8-8/10--8-10-12-10-8-10-8-8h7-8h7------------|
G-9-7-7-7------------------------------------------7~~~~~~~~--|
D-------------------------------------------------------------|
A-------------------------------------------------------------|
E-------------------------------------------------------------|

Fill
e-----------|
B-----------|
G-7777777--|
D-7777777--|
A-5555555--|
E-----------|

(Verse)
(Pre-Chorus)

Outro(Gt 1 plays this on 2nd time while Gt 2 plays Pre-Chorus)
e-------------|---------------------------------|
B-------------|---------------------------------|
G-7/9/1197--|-11/12/1412111111/121212—-77--|
D-x/x/-xxx--|--x/-x/-x-x-x-x-x/-x-x-x—-xx--|
A-5/7/-975--|--9/10/1210-9-9-9/101010—-55--|
E-------------|---------------------------------|

For the solo, its best to just know what key its in, D, and just listen to the
song and try to figure it out ur self, that’s what I did and it sounds almost
perfect. Will also plays it closer to the 12th fret but I went down a couple
strings to the 7th fret. Its easier my way.


Текст, аккорды и табулатура для песни "All My Fault", исполняет "Fenix Tx".
Используемые в песне аккорды можно найти в разделе Как брать аккорды. Аккорды для шестиструнной гитары. Другие песни можно найти на нашем сайте, воспользовавшись алфавитным указателем вверху страницы.


Слушать онлайн All My Fault


Fenix TXAll My Fault на Яндекс.Музыке


 
Ошибка в тексте? Выделите ошибку и нажмите Ctrl+Enter