Name: [email protected]

Tabs: All my Fault- Fenix Tx

Intro (guitar 1)
Just palm mute D5 for a while)

Verse 1 & 3 (all Palm Muted. Only guitar 1)

e-------------------------------e
b-------------------------------b
g-------7-----------------------g
d-------7-------5-------7-------d
a-------5-------5-------7-------a
e---------------3-------5-------e
*******32x*****16x*****16x*****

Verse 2
same as verses 1 & 3, just without palm muting.

Verse 4 (guitar 1 only)

e----------------------------------e
b----------------------------------b
g--7---7--7------------------------g
d--7---7--7------------------------d
a--5---5--5------------------------a
e------------------------>>>>>>>>--e

Chorus(guitar two in chords)
***B5**G5**D5**A5**
e---------------------------------------------------------e
b---------------------------------------------------------b
g--4-------7-7/9-9/11-11/12-1211-119-96-6-6-6-6-6-6-6--g
d--4---5--------------------------------------------------d
a--2---5---5-5/7-7/-9--9/10-10-9--97-74-4-4-4-4-4-4-4--a
e------3--------------------------------------------------e
**16x*16x*16x*16x**

Bridge (Both guitars)

e--------------------------------------------e
b--------------------------------------------b
g--7---------7-6---------7-6----4------------g
d--7----5----7-6----7----7-6----4----5----7--d
a--5----5----5-4----7----5-4----2----5----7--a
e-------3-----------5----------------3----5--e
**16x**12x*********12x*********8x****4x***4x**

Solo (guitar 2 plays bridge)

e-----------------------------------------------------e
b-----------------------------------------------------b
g----------11--12--11--12--14--12--11--12--11---------g
d--12--14-------------------------------------12h14p12d
a-----------------------------------------------------a
e-----------------------------------------------------e

e-----------------------------------------------------e
b-----------------------------------------------------b
g-----------------------------------------------------g
d-11/12~--14--12--14--12--11-h12-p11---------12-11~--d
a------------------------------------12--14-----------a
e-----------------------------------------------------e

e-----------------------------------------------------e
b-----------------------------------------------------b
g12--11-12-14-12-11-12-11-----------------------------g
d--------------------------14-14--12-12--11-11--12----d
a-------------------------------------------------12--a
e-----------------------------------------------------e

e---------------------10-10-10-12-12-12-14-14-14-9h10p9
b------------10-10-10----10-10----10-10-10-10-10------b
g14--12--11-------------------------------------------g
d-----------------------------------------------------d
a-----------------------------------------------------a
e-----------------------------------------------------e

e-----------------------------------------------------e
b-12-10~--10--8-10-8--7-h8-p7-----------7-h8-/10--7-8-b
g------------------------------7--6--7----------------g
d-----------------------------------------------------d
a-----------------------------------------------------a
e-----------------------------------------------------e

e-----------------------------------------------------e
b10-/12-10--8--10--12--10-----10h12p10----------------b
g--------------------------12----------12-11------7-7-g
d--------------------------------------------12---7-7-d
a-------------------------------------------------5-5-a
e-----------------------------------------------------e

Outro (guitar 2 plays bridge)

e-----------------------------------------------------e
b----------------------------------(play)-------------b
g----------11--12p11---------------(that)-------------g
d--12--14------------12-12-12-11---(three)------------d
a--------------------12-12-12-11---(times)------------a
e--------------------10-10-10--9----------------------e

e-----------------------------------------------------e
b-----------------------------------------------------b
g--------11-12--11-12-14-12-11-11h12p11---------------g
d--12-14--------------------------------12h14p1211/12d
a-----------------------------------------------------a
e-----------------------------------------------------e

Song order

*Guitar 1*                          *Guitar 2*
|Intro                              |Nothing
|Verse 1                            |Nothing
|Verse 2                            |Verse 2
|Chorus x2                          |Chorus x2
|Bridge                             |Bridge
|Verse 3 x2                         |Verse3 x2
|Chorus x2                          |Chorus x2
|Solo                               |Bridge
|Nothing (bass Verse)               |Nothing (bass Verse)
|Verse 4                            |Nothing
|Chorus x2                          |Chorus x2
|Bridge                             |Bridge
|Outro                              |Bridge
|End on D5                          |End on D5

Chords in the song...

e---------------------------------------------e
b---------------------------------------------b
g---7-----6-----4-----------------------------g
d---7-----6-----4-----7-----5-----12-----11---d
a---5-----4-----2-----7-----5-----12-----11---a
e---------------------5-----3-----10------9---e
****D5***C#5****B5****A5****G5****D5****C#5***

This song is played in the key of D, the solo is in the key of D
also.



Текст, аккорды и табулатура для песни "All My Fault", исполняет "Fenix Tx".
Используемые в песне аккорды можно найти в разделе Как брать аккорды. Аккорды для шестиструнной гитары. Другие песни можно найти на нашем сайте, воспользовавшись алфавитным указателем вверху страницы.


Слушать онлайн All My Fault


Fenix TXAll My Fault на Яндекс.Музыке


 
Ошибка в тексте? Выделите ошибку и нажмите Ctrl+Enter