Band - FEEDER
Song - We can't rewind
Album - Echo Park
Tabbed by Lawrence

INFO

FEEDER are the best band in the world and if you don't listen
to thier music then you are crazy! ECHO PARK is their best album
and has the best songs e.g. Buck rogers, Seven days in the sun etc.
This is one of their best songs so give this tab a go.

I think this is around 95% correct, the chorus might be a
bit wrong in the way of chords and also the order might be
wrong but all in all it sound perfect to me - enjoy it!!!

The baseline for the rest of the song is the bottom note of
the chords (except the verse but i have told you that already)
but i can't be bothered to write it out so good luck.

A wammy bar is a metal bar sticking out that bends the notes
up and down.

R= 1 Beat of rest

VERSE 1

GUITAR
E|--2-2-2-2-2-2---3-3-3-3-3-3-----|
B|--3-3-3-3-3-3---3-3-3-3-3-3-----|
G|--2-2-2-2-2-2---2-2-2-2-2-2-----|
D|--------------------------------|
A|--------------------------------|
E|--------------------------------|

BASS (comes in half way through)
E|----------------------|
B|----------------------|
G|----------------------|
D|----------------------|
A|--5-5-----------------|
E|------5-5-7-7-3-3-----|

CHORUS

GUITAR
E|---------------------------------------|
B|---------------------------------------|
G|--7-7-7-7------------------------------|
D|--7-7-7-7-7-7-7-7-9-9-9-9-5-5-5-5------|
A|--5-5-5-5-7-7-7-7-9-9-9-9-5-5-5-5------|
E|----------5-5-5-5-7-7-7-7-3-3-3-3------|

(The first time you play this you miss out the 
second two chords from each set of four, replace
with rests)
E.G.
E|-----------|
B|-----------|
G|--7-7-7-7--|
D|--7-7-7-7--|
A|--5-5-5-5--|
E|-----------|
ACTUALLY IS...
E|-----------|
B|-----------|
G|--7-7--R-R-|   
D|--7-7--R-R-|
A|--5-5--R-R-|
E|-----------|

BASS
E|---------------------------------------|
B|---------------------------------------|
G|---------------------------------------|
D|---------------------------------------|
A|--5-5-5-5------------------------------|
E|----------5-5-5-5-7-7-7-7-3-3-3-3------|

BRIDGE PART 1

E|--------------------------------------|
B|--------------------------------------|
G|------------------7-7-7-7-7-7-7-7-----|
D|--4-4-4-4-5-5-5-5-7-7-7-7-7-7-7-7-----|
A|--4-4-4-4-5-5-5-5-5-5-5-5-5-5-5-5-----|
E|--2-2-2-2-3-3-3-3---------------------|

PART 2

E|---------|------------------------------|
B|---------|------------------------------|
G|--7-7-7-7|------------------------------|
D|--7-7-7-7|-7-7-7-7-5-5-5-5-5-5-5-5------|
A|--5-5-5-5|-7-7-7-7-5-5-5-5-5-5-5-5------|
E|---------|-5-5-5-5-3-3-3-3-3-3-3-3------|
This is not|
played the |
first time |
after      |
bridge 1   |

HERE'S THE ORDER (I THINK):-
VERSE X8
CHORUS X4
VERSE X4
CHORUS X6
BRIDGE 1 X2
BRIDGE 2 X8
VERSE X2
CHORUS X4 (with 2nd guitar with wammy bar)
CHORUS X8


Текст, аккорды и табулатура для песни "We Cant Rewind", исполняет "Feeder".
Используемые в песне аккорды можно найти в разделе Как брать аккорды. Аккорды для шестиструнной гитары. Другие песни можно найти на нашем сайте, воспользовавшись алфавитным указателем вверху страницы.


 
Ошибка в тексте? Выделите ошибку и нажмите Ctrl+Enter