TITLE: We Can't Rewind
ALBUM: Echo Park
GROUP: Feeder
Drop-D Tuning

VERSE:
Gtr 1:
    D        A        B        G	(bass)
E|--------------------------------------|
B|--3-3-3-3--3-3-3-3--3-3-3-3--3-3-3-3--|
G|--2-2-2-2--2-2-2-2--0-0-0-0--0-0-0-0--|
D|--0-0-0-0--0-0-0-0--0-0-0-0--0-0-0-0--|
A|--------------------------------------|
D|--------------------------------------|

Gtr 2: At the end of each phrase plays:
E|----------------|
B|----------------|
G|----------------|
D|--2-2-2-2b-2-0--|
A|----------------|
D|----------------|

CHORUS:
D5, A5, B5, G5
D5, A5, F#5, G5

LEAD OVER CHOURS:
E|------------------------------------------------------|
B|--15-15-15-15--15-15-15-15--15-15-15-17--17-17-17-17--|
G|--14-14-14-14--14-12-12-12--14-14-14------------------|
D|------------------------------------------------------|
A|------------------------------------------------------|
D|------------------------------------------------------|

BRIDGE:
F#5           G5       D5
Stop taking me for a fool now
F# 5               G5      D5
Yeah I've got this feeling inside me
           A5       G5
But I guess you knew

We can work it out
D5       A5              G5
We can find some place new
We can't rewind


Текст, аккорды и табулатура для песни "We Cant Rewind", исполняет "Feeder".
Используемые в песне аккорды можно найти в разделе Как брать аккорды. Аккорды для шестиструнной гитары. Другие песни можно найти на нашем сайте, воспользовавшись алфавитным указателем вверху страницы.


 
Ошибка в тексте? Выделите ошибку и нажмите Ctrl+Enter