Artist: 	Feeder
Album:  	Echo Park
Title:		Buck Rogers
Tabbed By:  	Adam Curtis

This Tab is 100% correct, I play this in my band every week, and it sounds perfect

Only uses E string

G|--------------------------------|
D|--------------------------------|
A|--------------------------------|           
E|-0-0-0-0-0-0-0-0-0-4-4-4-5-5-5-5|

Verse

G|--------------------------------|
D|--------------------------------|
A|--------------------------------|           x4         
E|-0-0-0-0-0-0-0-0-0-4-4-4-5-5-5-5|

Bridge (player/lemon)

G|--------------------------------|
D|--------------------------------|
A|--------------------------------|           x2       
E|-0-0-0-0-0-0-0-0-0-4-4-4-5-5-5-5|

                   
G|--------------------------------|
D|--------------------------------|
A|--------------------------------|               
E|-7-7-7-7-7-7-7-7-5--------0/12|

Chorus

G|---------------------------------------------------------------|
D|---------------------------------------------------------------|
A|---------------------------------------------------------------|
E|0-0-0-0-0-0-0-0-7-7-7-7-7-7-7-7-9-9-9-9-9-9-9-9-5-5-5-5-5-5-5-5|

G|---------------------------------------------------------------|
D|---------------------------------------------------------------|
A|---------------------------------------------------------------|
E|0-0-0-0-0-0-0-0-7-7-7-7-7-7-7-7-5-5-5-5-5-5-5-5-5-5-5-5-5-5-5-5|

Link

G|--------------------------------|
D|--------------------------------|
A|--------------------------------|           x2       
E|-0-0-0-0-0-0-0-0-0-4-4-4-5-5-5-5|

Verse

Chorus x2

Middle bit

G|--------------------------------|
D|--------------------------------|
A|--------------------------------|
E|2-2-2-2-2-4----5-5-5-5-8-8-8-8--|

G|--------------------------------|
D|--------------------------------|
A|--------------------------------|
E|2-2-2-2-2-4----5-5-5-5-5-5-5-5--|

G|--------------------------------|
D|--------------------------------|
A|--------------------------------|            x4
E|0-0-0-0-0-0-0-0-0-0-0-0-0-0-0-0-|

G|--------------------------------|
D|--------------------------------|
A|--------------------------------|            x2
E|-0-0-0-0-0-0-0-0-0-4-4-4-5-5-5-5|

Chorus x2

End

G|----------------------------|
D|----------------------------|
A|----------------------------|
E|-0-0-0-0-0-0-0-0-0-4-4-4-5-5|


Thanks


Текст, аккорды и табулатура для песни "Buck Rogers", исполняет "Feeder".
Используемые в песне аккорды можно найти в разделе Как брать аккорды. Аккорды для шестиструнной гитары. Другие песни можно найти на нашем сайте, воспользовавшись алфавитным указателем вверху страницы.


Слушать онлайн Buck Rogers


FeederBuck Rogers на Яндекс.Музыке


 
Ошибка в тексте? Выделите ошибку и нажмите Ctrl+Enter