Artist: Feeder
Title: Buck Rogers
From: [email protected]
^=bend up
/=slide up
INTRO:
Guitar 
2 plays this riff while Guitar 1 continues to play the 
Intro chords 2x then play this
e|------------------------------------
B|------------------------------------
G|------------------------------------
D|--9-9-9-9-9-9-9-9--7--7^^^^^^^^^----
A|--9-9-9-9-9-9-9-9--7----------------
E|--7-7-7-7-7-7-7-7--5----------------
CHORUS:
the 
chords are played each 8x in that order. Play the last chord about 16x.
e|------------------------
B|------------------------
G|------------------------  
D|--6--9--11--7--6--9--7--
A|--7--9--11--7--7--9--5--
E|--0--7--9---5--0--7--5--
POST CHORUS:
e|--------------------------------
B|-------------------4--4--5--5---
G|-------------------7^-7^-8^-8^--  
D|--6-6-6-6-6-6-6-6---------------
A|--7-7-7-7-7-7-7-7---------------
E|--0-0-0-0-0-0-0-0--------------- x2 played along with intro chords
MIDDLE:
e|--------------------------------------------------------------------
B|--------------------------------------------------------------------
G|--------------------------------------------------------------------  
D|-4-4-4-4-4--6--7-7-7-7--10-10-10-10--4-4-4-4-4--6--7-7-7-7-7-7-7-7--
A|-4-4-4-4-4--6--7-7-7-7--10-10-10-10--4-4-4-4-4--6--7-7-7-7-7-7-7-7--
E|-2-2-2-2-2--4--5-5-5-5--8--8--8--8---2-2-2-2-2--4--5-5-5-5-5-5-5-5--
e|--------------------------------------------
B|--------------------------------------------
G|--13-13-13-11-11-11-11-11-8-8-8-6-6-6-6-6---
D|--------------------------------------------
A|--------------------------------------------
E|--------------------------------------------  
 
D|--6-6-6-6-6-6-6-6---------------
A|--7-7-7-7-7-7-7-7---------------
E|--0-0-0-0-0-0-0-0---------------


Текст, аккорды и табулатура для песни "Buck Rogers", исполняет "Feeder".
Используемые в песне аккорды можно найти в разделе Как брать аккорды. Аккорды для шестиструнной гитары. Другие песни можно найти на нашем сайте, воспользовавшись алфавитным указателем вверху страницы.


Слушать онлайн Buck Rogers


FeederBuck Rogers на Яндекс.Музыке


 
Ошибка в тексте? Выделите ошибку и нажмите Ctrl+Enter