-------------------------------------------------------------------------------
			     Buck Rogers - Feeder
-------------------------------------------------------------------------------

By: lil Russian

ok this is my first tab, but i know it's right...coz my band plays it like this and it works!
Besides, you know where to put the alterations...

Intro 
e|---------------------------------------------------------------------------|
B|---------------------------------------------------------------------------|
G|---------------------------------------------------------------------------|
D|---------------------------------------------------------------------------|
A|---11-11-11-11-11-11-11-11-----6-6-6-7-7-7-7-------------------------------|
E|0---0--0--0--0--0--0--0--0--0--4-4-4-5-5-5-5-------------------------------|

Verse
e|----0------0------0------0------0------0------0------0---------------------|
B|12-----12-----12-----12-----11-----11-----10-----10------------------------|
G|---------------------------------------------------------------------------|
D|---------------------------------------------------------------------------|
A|---------------------------------------------------------------------------|
E|---------------------------------------------------------------------------|

Pre-Chorus 
e|---------------------------------------------------------------------------|
B|---------------------------------------------------------------------------|
G|1-1-1-1-1-1-1-1-1----------------------------------------------------------|
D|2-2-2-2-2-2-2-2-2--6-6-6--7-7-7-7------------------------------------------|
A|2-2-2-2-2-2-2-2-2--6-6-6--7-7-7-7------------------------------------------|
E|0-0-0-0-0-0-0-0-0--4-4-4--5-5-5-5------------------------------------------|

e|---------------------------------------------------------------------------|
B|---------------------------------------------------------------------------|
G|8-8-8-8-8-8-8--6-6-6-------------------------------------------------------|
D|9-9-9-9-9-9-9--7-7-7---------------7-7-7-7b-7b-7b-7b-7b--------------------|
A|9-9-9-9-9-9-9--7-7-7-------------------------------------------------------|
E|7-7-7-7-7-7-7--5-5-5-------------------------------------------------------|
						
Chorus
e|---------------------------------------------------------------------------|
B|---------------------------------------------------------------------------|
G|1-1-1-1-1-1-1-1-1--8-8-8-8-8-8-8-8-8---------------------------------------|
D|2-2-2-2-2-2-2-2-2--7-7-7-7-7-7-7-7-7--11-11-11-11-11-11-11-11-11-----------|
A|2-2-2-2-2-2-2-2-2--7-7-7-7-7-7-7-7-7--11-11-11-11-11-11-11-11-11-----------|
E|0-0-0-0-0-0-0-0-0--5-5-5-5-5-5-5-5-5---9--9--9--9--9--9--9--9--9-----------|

e|---------------------------------------------------------------------------|
B|---------------------------------------------------------------------------|
G|6-6-6-6-6-6-6-6-6-6-6-6-6-6-6-6-6-6-6-6-6-6-6-6-6--------------------------|
D|7-7-7-7-7-7-7-7-7-7-7-7-7-7-7-7-7-7-7-7-7-7-7-7-7--------------------------|
A|7-7-7-7-7-7-7-7-7-7-7-7-7-7-7-7-7-7-7-7-7-7-7-7-7--------------------------|
E|5-5-5-5-5-5-5-5-5-5-5-5-5-5-5-5-5-5-5-5-5-5-5-5-5--------------------------|

Bridge
e|---------------------------------------------------------------------------|
B|----------------------------4--4--4---5--5--5--5---------------------------|
G|---------------------------(8)(8)(8)-(9)(9)(9)(9)--------------------------|
D|---------------------------------------------------------------------------|
A|11-11-11-11-11-11-11-11-11-------------------------------------------------|
E|-0--0--0--0--0--0--0--0--0-------------------------------------------------|

Middle Section
e|---------------------------------------------------------------------------|
B|---------------------------------------------------------------------------|
G|3-3-3-3-3--5--X--6-6-6-6-6---9--9--9--9--6-6-6-6-6-6-6---------------------|
D|4-4-4-4-4--6--X--7-7-7-7-7--10-10-10-10--7-7-7-7-7-7-7---------------------|
A|4-4-4-4-4--6--X--7-7-7-7-7--10-10-10-10--7-7-7-7-7-7-7---------------------|
E|2-2-2-2-2--4--X--5-5-5-5-5---8--8--8--8--5-5-5-5-5-5-5---------------------|

e|---------------------------------------------------------------------------|
B|9--9--9--7--7--7--7--7--7--4---4--4--2--2--2--2----------------------------|
G|---------------------------------------------------------------------------|
D|---------------------------------------------------------------------------|
A|---------------------------------------------------------------------------|
E|---------------------------------------------------------------------------|

e|---------------------------------------------------------------------------|
B|4--4--4--5--5--5--5--5/9---------------------------------------------------|
G|--------------------------8-8-8-8-8-8-8-8----------------------------------|
D|--------------------------6-6-6-6-6-6-6-6----------------------------------|
A|--------------------------7-7-7-7-7-7-7-7----------------------------------|
E|--------------------------0-0-0-0-0-0-0-0----------------------------------|

Outro
e|---------------------------------------------------------------------------|
B|-----------------------------4---4---4----5---5----------------------------|
G|----------------------------(8)-(8)-(8)--(9)-(9)---------------------------|
D|---------------------------------------------------------------------------|
A|11-11-11-11-11-11-11-11-11-------------------------------------------------|
E|-0--0--0--0--0--0--0--0--0-------------------------------------------------|

It's really easy to find the rythm for this song...so i'll let you  work it out
for yourselves!
===============================================================================


Текст, аккорды и табулатура для песни "Buck Rogers", исполняет "Feeder".
Используемые в песне аккорды можно найти в разделе Как брать аккорды. Аккорды для шестиструнной гитары. Другие песни можно найти на нашем сайте, воспользовавшись алфавитным указателем вверху страницы.


Слушать онлайн Buck Rogers


FeederBuck Rogers на Яндекс.Музыке


 
Ошибка в тексте? Выделите ошибку и нажмите Ctrl+Enter