Fear Factory
Resurrection

Submitted By: Tim Murtagh
Email: [email protected]

[email protected]--------|
|------------------------------------------------------------------------|
|-5-5--5-5-5-7---3-3--3-3-3-5--------------------------------------------|
|-5-5--5-5-5-7---3-3--3-3-3-5--------------------------------------------| x2
|-3-3--3-3-3-5---1-1--1-1-1-3--------------------------------------------|
|------------------------------1-0-0-0-1-0-0-0-1-0--1-0-0-0-1-0-0-0-1-0--|

|-----------------------------------------------------------------------|
|-----------------------------------------------------------------------|
|-----------------------------------------------------------------------|
|-----------------------------------------------------------------------| x4
|-----------------------------1-0-0-0--1-0-0-0-1-0--1-0-0-0-1-0-0-0-1-0-|
|-----------------------------1-0-0-0--1-0-0-0-1-0--1-0-0-0-1-0-0-0-1-0-|
                              |..................PM....................|

|------------------------------------------------------------------------|
|------------------------------------------------------------------------|
|-5-5--5-5-5-7---3-3--3-3-3-5--------------------------------------------|
|-5-5--5-5-5-7---3-3--3-3-3-5--------------------------------------------| x4
|-3-3--3-3-3-5---1-1--1-1-1-3--------------------------------------------|
|------------------------------1-0-0-0-1-0-0-0-1-0--1-0-0-0-1-0-0-0-1-0--|

|------------------------------------------|
|------------------------------------------|
|-5-----7----------5-----7-----------------|
|-5-----7----------5-----7-----8-----------| x4
|-3-----5----------3-----5-----8-----------|
|------------------------------6-----------|


|---------------------------------------------------------|
|---------------------------------------------------------|
|---------------------------------------------------------|
|-8--8-8-8-8-8--7--7-7-7-7-7--3--3-3-3-3-3--5--5-5-5-5-5--| x2
|-8--8-8-8-8-8--7--7-7-7-7-7--3--3-3-3-3-3--3--3-3-3-3-3--|
|-6--6-6-6-6-6--5--5-5-5-5-5--1--1-1-1-1-1--3--3-3-3-3-3--|


|-----------------------------|
|-----------------------------|
|-----------------------------|
|-8-----------------------10--| x1
|-8-----------------------10--|
|-6--66666666666666666666-8---|


Just singing for a while

|------------------------------------------------------------------------|
|------------------------------------------------------------------------|
|-5-5--5-5-5-7---3-3--3-3-3-5--------------------------------------------|
|-5-5--5-5-5-7---3-3--3-3-3-5--------------------------------------------| x4
|-3-3--3-3-3-5---1-1--1-1-1-3--------------------------------------------|
|------------------------------1-0-0-0-1-0-0-0-1-0--1-0-0-0-1-0-0-0-1-0--|

|---------------------------------------------|
|---------------------------------------------|
|-5-----7----------5-----7--------------------|
|-5-----7----------5-----7-----8-x-8-x-8-x-8--| x4
|-3-----5----------3-----5-----8-x-8-x-8-x-8--|
|------------------------------6-x-6-X-6-X-6--|

|---------------------------------------------------------|
|---------------------------------------------------------|
|---------------------------------------------------------|
|-8--8-8-8-8-8--7--7-7-7-7-7--3--3-3-3-3-3--5--5-5-5-5-5--| x2
|-8--8-8-8-8-8--7--7-7-7-7-7--3--3-3-3-3-3--3--3-3-3-3-3--|
|-6--6-6-6-6-6--5--5-5-5-5-5--1--1-1-1-1-1--3--3-3-3-3-3--|

|----------------------------------------------|
|----------------------------------------------|
|----------------------------------------------|
|-8----------7----------3----------5-----5--5--| x1
|-8----------7----------3----------5-----5--5--|
|-6----------5----------1----------3-----3--3--|


|-------------------------------------------------------|
|-------------------------------------------------------|
|-------------------------------------------------------|
|-8----------7----------3----------5-----5-5-5---5---5--| x1
|-8----------7----------3----------3-----3-3-3---3---3--|
|-6----------5----------1----------3-----3-3-3---3---3--|


|----------------------------------------------|
|----------------------------------------------|
|----------------------------------------------|
|-8----------7----------3----------5-----5--5--| x1
|-8----------7----------3----------3-----3--3--|
|-6----------5----------1----------3-----3--3--|


|---------------------------------------------------|
|---------------------------------------------------|
|---------------------------------------------------|
|-8----------7----------3---------------------------| x1
|-8----------7----------3-----let it ring-----------|
|-6----------5----------1---------------------------|

that should be it

submit: Send


Текст, аккорды и табулатура для песни "Resurrection", исполняет "Fear Factory".
Используемые в песне аккорды можно найти в разделе Как брать аккорды. Аккорды для шестиструнной гитары. Другие песни можно найти на нашем сайте, воспользовавшись алфавитным указателем вверху страницы.


 
Ошибка в тексте? Выделите ошибку и нажмите Ctrl+Enter