Band: Fear Factory
Bassist:  Christian Olde Wolbers
Song: Invisible Wounds
Tabbed by: Dave Metts 
History:
   4/25/2001 - Original submission to the BTA

Notes:  As with all tabs, just listen to the song to pick it up.
Time is not respected in this tab, but I tried to give some
rough indication of time.  If you find anything wrong with this
tab, fix it yourself and let me know what you did.  This is my
first complete tab.  Enjoy!
----------------------------------------------------------------

Riff A:
G|-------------------------------------------------------
D|-------------------------------------------------------
A|-------------------------------------------------------
E|---------------222---------------222-4-444-44-44-4-222-
B|-5-555-55-55-5-----3-333-33-33-3-----------------------

G|--------------------|
D|--------------------|
A|--------------------|
E|6666-6666-6666-6666-|
B|--------------------|

Riff B: Let notes ring
G|--------------------------------------------|
D|--------------------------------------------|
A|--------------------------------------------|
E|----------------------4---------------------|
B|5------6/4-6------6/4--------6/4-0----------|

Riff C:
G|-------------------------------------------------------|
D|-------------------------------------------------------|
A|-------------------------------------------------------|
E|---------------2-----------------2---4-444-444-444-2---|
B|-5-555-555-555-----3-333-333-333-----------------------|

Riff Cv:
G|-------------------------------------------------------
D|-------------------------------------------------------
A|-------------------------------------------------------
E|-------------------------------------4-444-444-444-----
B|-5-555-555-555-4h5-6-666-666-666-4h5---------------4h5-

G|--------------------|
D|--------------------|
A|--------------------|  


Текст, аккорды и табулатура для песни "Invisible Wounds", исполняет "Fear Factory".
Используемые в песне аккорды можно найти в разделе Как брать аккорды. Аккорды для шестиструнной гитары. Другие песни можно найти на нашем сайте, воспользовавшись алфавитным указателем вверху страницы.


 
Ошибка в тексте? Выделите ошибку и нажмите Ctrl+Enter