Song: Descent
Artist: Fear Factory
Album: Obsolete
Tabber: Garrett Wojcik ([email protected])

This is a great song, and not too difficult,
so I'm just gonna show each of the riffs.
You need a 5-string bass tuned like this:
(Low to high is AEADG)
To play this one you only need the low B and the E,
So I'm only going to show the first A and E.

Intro Riff
E-----------------0---------------------
A--2----4----5-----------2----4----0----

Link
E------------------------
A---0--00--02--22--2---and then do...

Intro Extension
E-----------------0------------------------
A--2----4----5---------2----4----0----2----

Verse
E----------------------------------
A--2--2--4-44--4--2--2--4-44-4-----A bunch of times

Other Riff
E-------------------------------5-55-5--4-44-4--0-00-0-
A--2-2--22-4-4-5-5-55-7--5-2-2-------------------------

Those notes are all that is used, so you can
figure out any other parts that you need.


Текст, аккорды и табулатура для песни "Descent", исполняет "Fear Factory".
Используемые в песне аккорды можно найти в разделе Как брать аккорды. Аккорды для шестиструнной гитары. Другие песни можно найти на нашем сайте, воспользовавшись алфавитным указателем вверху страницы.


 
Ошибка в тексте? Выделите ошибку и нажмите Ctrl+Enter