-----------------------------------------------------------------
	Nobody Puts Baby in the Corner - Fall Out Boy
-----------------------------------------------------------------
Tabbed by: jodie f.
Email: [email protected]

Tuning: Standard



   Drink down that gin and kerosene,
   And come spit on bridges with me, 

(strumming)
e|---------------------------------------|
B|---------------------------------------|
G|-5---9----5---9------------------------|
D|-5---9----5---9------------------------|
A|-3---7----3---7------------------------|
E|---------------------------------------|


   Just to keep us warm.
   Light a match to leave me be.

e|-----------------------------------------|
B|-----------------------------------------|
G|-----------------------------------------|
D|--7---2----7---2-------------------------|
A|--7---2----7---2-------------------------|
E|--5---0----5---0-------------------------|


Light a match to leave me be.

e|-------------------------|
B|-------------------------|
G|-----------5-------------|
D|--5--3--5--5-------------|
A|--5--3--5--3-------------|
E|--3--1--3----------------|


       I'll keep my jealousy close, 
       'Cause it's all mine.
       And if you say this makes you happy, 

e|----------------------------------| *=10
B|----------------------------------|
G|----------------------------------|
D|---5-7--7-7-7----5-*--*-*-*-------| x3
A|---5-7--7-7-7----5/*--*-*-*-------|
E|---3/5--5-5-5----3-8--8-8-8-------|
          m m m         m m m



Then I'm not the only one lying.

e|---------------------------------------|
B|---------------------------------------|
G|---------------------------------------|
D|---5--5--------------------------------|
A|---5--5--------------------------------|
E|---3--3(strum)-------------------------|


Chorus x2:
Keep quiet,
Nothing comes as easy as you.
Can I lay in your bed all day,
I'll be your best kept secret, 
And your biggest mistake?
The hand behind this pen relives a failure every day.

e|--------------------------------|
B|--------------------------------|
G|---5----------------------------| 
D|---5--7--2--3-------------------| x4
A|---3--7--2--3-------------------|
E|------5--0--1-------------------|



       I'll keep my jealousy close, 
       'Cause it's all mine.
       And if you say this makes you happy, 

e|----------------------------------| *=10
B|----------------------------------|
G|----------------------------------|
D|---5-7--7-7-7----5-*--*-*-*-------| x3
A|---5-7--7-7-7----5/*--*-*-*-------|
E|---3/5--5-5-5----3-8--8-8-8-------|
          m m m         m m m



Then I'm not the only one lying.

e|---------------------------------------|
B|---------------------------------------|
G|---------------------------------------|
D|---5--5--------------------------------|
A|---5--5--------------------------------|
E|---3--3(strum)-------------------------|


 Drink down that gin and kerosene,
   And come spit on bridges with me, 

(strumming)
e|---------------------------------|
B|---------------------------------|
G|-5---9----5---9------------------|
D|-5---9----5---9------------------|
A|-3---7----3---7------------------|
E|---------------------------------|


   Just to keep us warm.
   Light a match to leave me be.

e|-------------------------------|
B|-------------------------------|
G|-------------------------------|
D|--7---2----7---2---------------|
A|--7---2----7---2---------------|
E|--5---0----5---0---------------|


Light a match to leave me be.

e|------------------------------|
B|------------------------------|
G|-----------5------------------|
D|--5--3--5--5------------------|
A|--5--3--5--3------------------|
E|--3--1--3---------------------|



Chorus x2:
Keep quiet,
Nothing comes as easy as you.
Can I lay in your bed all day,
I'll be your best kept secret, 
And your biggest mistake?
The hand behind this pen relives a failure every day.

e|--------------------------------|
B|--------------------------------|
G|---5----------------------------| 
D|---5--7--2--3-------------------| x4
A|---3--7--2--3-------------------|
E|------5--0--1-------------------|


(interlude) chords underneath: A5-A5, F5, A5

e|----------------------------------------3---------------|
B|------1---3-1---1-------------1---3-1-------------------|
G|--2-2---2-----2-----------2-2---2-----2-----------------| 
D|--------------------------------------------------------| x4
A|--------------------------------------------------------|
E|--------------------------------------------------------|
   (A5 x2)


e|----------------------------------------3---------------|
B|------1---3-1---1-------------1---3-1-------------------|
G|--2-2---2-----2-----------2-2---2-----2-----------------| 
D|--------------------------------------------------------|
A|--------------------------------------------------------|
E|--------------------------------------------------------|
   (F5)


e|----------------------------------------3---------------|
B|------1---3-1---1-------------1---3-1-------------------|
G|--2-2---2-----2-----------2-2---2-----2-----------------| 
D|--------------------------------------------------------|
A|--------------------------------------------------------|
E|--------------------------------------------------------|
   (A5)


So wear me like a locket around your throat.
I'll weigh you down. 
I'll watch you choke.
You look so good in blue.
You look so good in blue.
[x3]

(interlude continues)
e|---------------------------------|
B|---------------------------------|
G|---------------------------------| 
D|--3--7---3--7-(/2)---------------| x3
A|--3--7---3--7-(/2)---------------|
E|--1--5---1--5-(/0)---------------|


Chorus x3:
Keep quiet,
Nothing comes as easy as you.
Can I lay in your bed all day?

(acappella 1st time)

I'll be your best kept secret, 
And your biggest mistake.
The hand behind this pen relives a failure every day.

e|-----------------------------------|     
B|-----------------------------------|     
G|------5----------------------------| 
D|--(5)-5--7--2--3-------------------| x5   
A|--(5)-3--7--2--3-------------------|      
E|--(3)----5--0--1-------------------|      



end/outro:

e|--------------------|
B|--------------------|
G|--------------------| 
D|--5---7-7-----------|
A|--5---7-7-----------|
E|--3---5-5-----------|








lyrics:

Drink down that gin and kerosene,
And come spit on bridges with me, 
Just to keep us warm.
Light a match to leave me be.
Light a match to leave me be.

I'll keep my jealousy close, 
'Cause it's all mine.
And if you say this makes you happy, 
Then I'm not the only one lying.

[Chorus: x2]
Keep quiet,
Nothing comes as easy as you.
Can I lay in your bed all day,
I'll be your best kept secret, 
And your biggest mistake?
The hand behind this pen relives a failure every day

And I'll keep my jealousy close, 
'Cause it's all mine.
And if you say this makes you happy, 
Then I'm not the only one lying.

Drink down that gin and kerosene,
And come spit on bridges with me, 
Just to keep us warm.
Light a match to leave me be.
Light a match to leave me be.

[Chorus x2]

So wear me like a locket around your throat.
I'll weigh you down. 
I'll watch you choke.
You look so good in blue.
You look so good in blue.
[x3]

[Chorus: x3]


Текст, аккорды и табулатура для песни "Nobody Puts Baby In The Corner", исполняет "Fall Out Boy".
Используемые в песне аккорды можно найти в разделе Как брать аккорды. Аккорды для шестиструнной гитары. Другие песни можно найти на нашем сайте, воспользовавшись алфавитным указателем вверху страницы.


 
Ошибка в тексте? Выделите ошибку и нажмите Ctrl+Enter