Tabber: John Cukras
Email: [email protected]

If you tab the solo please send to me :D

Tuning: Normal

Riff 1:
E----------------------------------------
B----------------------------------------
G----------------------------------------
D-2--2-----------------2-----------------
A-2--2-00-5-00-7-00-9--2-00-5-00-4-00-3--
E-0--0-00-3-00-5-00-7--0-00-3-00-2-00-1--

Riff 2:
E-----------------------------------------------------
B-----------------------------------------------------
G-----------------------------------------------------
D-----------------------------------------------------
A-77777-44444-77777-44444-77777-44444-55555-4444-3333-
E-55555-22222-55555-22222-55555-22222-33333-2222-1111-

Riff 1

Riff 2

Riff 3: Played under the solo.
E------------------------
B------------------------
G------------------------
D-2-----2-----2----------
A-2-----2-----2----------
E-0-000-0-000-0-00-3-2-1-
pm  ...   ...   ..

Riff 1

Riff 2

Outro:
E--------------------
B--------------------
G--------------------
D--------------------
A-5-00-7-00-9-00-10--
E-3-00-5-00-7-00-8---


Текст, аккорды и табулатура для песни "Drugged Out", исполняет "Fall Out Boy".
Используемые в песне аккорды можно найти в разделе Как брать аккорды. Аккорды для шестиструнной гитары. Другие песни можно найти на нашем сайте, воспользовавшись алфавитным указателем вверху страницы.


 
Ошибка в тексте? Выделите ошибку и нажмите Ctrl+Enter