Вступление:
E|-9/11-6-7-4-12-11-|-7-6-7-4-6-7---7-----|-6/7-6-7-6-7-4-| \
H|------------------|-------------5---5-4-|---------------| |
G|------------------|---------------------|---------------| |
D|------------------|---------------------|---------------| |
A|------------------|---------------------|---------------| |
E|------------------|---------------------|---------------| |
                                                             > 2 раза
E|-9/11-6-7-4-12-11-|-7-6-7-4-6-7---7-----|-6/7-6-7-6-4---| |
H|------------------|-------------5---5-4-|---------------| |
G|------------------|---------------------|---------------| |
D|------------------|---------------------|---------------| |
A|------------------|---------------------|---------------| |
E|------------------|---------------------|---------------| /

E|------------------|
H|-4^5^4------------|
G|------------------|
D|------------------|
A|------------------|
E|------------------|

Em                 C    G      D       Em  
А на балконе мы одни , твои родители ушли. 
Em                             C  G       D           Em
Ты даришь мне свой нежный взгляд, а я то знаю,что ты блядь
F                    G     C                   Am
Закрыл глаза я на секунду, а ты уже сидишь на мне,
Dm                  G      H7               Em
Ласкаешь нежными руками, и прижимаешься ко мне 

	Em                        
	Класс детка класс         \
	       C                  |
	Дай почувствовать екстаз  |
	G             D            >  2 раза        
	Как в первый раз          |
	         Em               |
	Вот это класс             /

Минуты где-то через две, пришли мы в комнату к тебе 
Ты раздеваться начала, и сразу к делу перешла 
Такого я еще не видел, и должен это я признать 
Мне было так с тобой приятно, ой,я забыл ведь ты же блядь

	Припев

Я долго буду вспоминать, какая у тебя кровать 
Я буду вспоминать тот час, когда любовь коснулась нас 
С тех пор я каждый день с тобою, на всех других мне наплевать 
Я так люблю тебя не скрою, и мне не важно,что ты блядь

	Припев


Текст, аккорды и табулатура для песни "Класс, детка, класс", исполняет "Фактор 2".
Используемые в песне аккорды можно найти в разделе Как брать аккорды. Аккорды для шестиструнной гитары. Другие песни можно найти на нашем сайте, воспользовавшись алфавитным указателем вверху страницы.


 
Ошибка в тексте? Выделите ошибку и нажмите Ctrl+Enter