Zombie Eaters
by Faith No More
from the album The Real Thing
(C) 1989 Big Thrilling Music/Vomit God Music (ASCAP)
transcribed by Steve Gorenburg
re-tabbed by Joe White

   H   e e h   H   e e Q e   H   e e Q e   h+e e   e Q e e   h e e   h e e      
-----|-9-----|-9-|-9-------|-9-|-9-------|-9-9---|-9---9---|-------|-------|----
3:---|---9---|---|---9---9-|---|---9---9-|-----9-|---9---9-|-------|-------|----
4:-7-|-----7-|---|-----7---|---|-----7---|-------|---------|-7---7-|-9---9-|----
---0-|-------|---|-----0---|---|-----0---|-------|---------|---7---|---7---|----
   Intro                                                     1st Verse

H   +h  q   H  +h+e e   H  +h e e   h e e   h e e   H   +h  q   H  +h e e   q   
---|------|---|-------|---|-------|-------|-------|----|----7-|---|-------|-----
---|------|---|-------|---|-------|-------|-------|----|------|-9-|-9-7-9-|-----
10-|-10-5-|---|-------|---|-------|-7---7-|-9---9-|-10-|-10---|---|-------|-7---
---|------|-7-|-7-7-5-|-7-|-7-5-7-|---7---|---7---|----|------|---|-------|-----

e e e e   q e e e e   h e e   e e Q e   e e Q e   e h e   e e Q e   h e e   h   
--------|-----------|-------|-9-------|-9-------|-9-----|-9-------|-9-9---|-----
--------|-----------|-----9-|---9---9-|---9---9-|---9-9-|---9---9-|-----9-|-----
7-7-5-7-|-----------|---7---|-----7---|-----7---|-------|-----7---|-------|-7---
--------|-7-7-7-5-7-|-0-----|---------|-----0---|-------|-----0---|-------|-----

+e e   H   h e e   h e e   H   +h  q   H  +h+e e   H  +h e e   h e e   h e e    
-----|-9-|-------|-------|----|------|---|-------|---|-------|-------|-------|--
---9-|---|-------|-------|----|------|---|-------|---|-------|-------|-------|--
-7---|---|-7---7-|-9---9-|-10-|-10-5-|---|-------|---|-----5-|-------|-7---7-|--
-----|---|---7---|---7---|----|------|-7-|-7-7-5-|-7-|-7-7---|-7-5-7-|---7---|--
          2nd Verse

h e e   H   +h  q   H  +h+e e   H  +H   e  e e  e  e  e   e  e  e e  e  e       
------|----|----7-|---|-------|---|---|-----------------|-12-11-9---------|-----
------|----|------|-9-|-9-9-7-|-9-|-9-|----9-10-12-10-9-|---------12-10-9-|-----
9---9-|-10-|-10---|---|-------|---|---|-10--------------|-----------------|-----
--7---|----|------|---|-------|---|---|-----------------|-----------------|-----

e  e e  e  e  e   e  e  e e  e  e    h e e   Q e e e   h e e   Q e e e   e  e   
----------------|-12-11-9/14-12-11-|-------|-9---9---|-------|-9---9---|--------
---9-10-12-10-9-|------------------|-----9-|---9---9-|-----9-|---9---9-|----9---
10--------------|------------------|---7---|---------|-7-7---|---------|-10-----
----------------|------------------|-0-----|---------|-------|---------|--------
                                                                                

e  e  e  e   e  e  e e  e  e   e  e e  e  e  e   e  e  e e  e  e    h e e   Q   
-----------|-12-11-9---------|-----------------|-12-11-9/14-12-11-|-------|-9---
10-12-10-9-|---------12-10-9-|----9-10-12-10-9-|------------------|-----9-|-----
-----------|-----------------|-10--------------|------------------|---7---|-----
-----------|-----------------|-----------------|------------------|-0-----|-----
                                                                                

e e e   h e e   e e Q e          h e  3x h e     h e  3x h e     h e  3x h e    
--9---|-------|-9-------|----||-------||-----||-------||-----||-------||--------
9---9-|-----9-|---9-----|-5:-||*-----*||-----||*-----*||-----||*-----*||--------
------|-7-7---|-----7---|-8:-||*-7---*||-7---||*-5---*||-5---||*-7---*||-7------
------|-------|-------7-|----||----7--||---5-||----5--||---7-||----7--||---5----
                             3rd Verse

                                   tr~~     tr~~                         tr~~
    h e  2x h e      Q q e   H   h q      h q      Q e e e   Q e e e   h q      
||-------||-----|----------|---|--------|--------|---------|---------|----------
||*-----*||-----|-3:-------|-2/|-5-5(7)-|-4-4(7)-|-3---3-5-|-2---2-4-|-5-5(7)---
||*-5---*||-5---|-4:-------|---|--------|--------|---3-----|---2-----|----------
||----5--||---0-|----3-2-0-|---|--------|--------|---------|---------|----------
                             Chorus

        tr~~
      h q      h q        q q q e e   q q e e e e   q q q e e   q q e e e e     
----|--------|------||----------r---|---------r---|-------r---|---------r---|---
----|-4-4(7)-|-3/21||-4:-------e---|---------e---|-------e---|---------e---|---
----|--------|------||-4:-------s---|---------s---|-------s---|---------s---|---
----|--------|------||----0-0-x-t-x-|-0-0-x-x-t-x-|-0-0-x-t-x-|-0-0-x-x-t-x-|---
                          w/distortion

q q q e e   q q e e e e   q q q e e   q q e e s s s s                           
------r---|---------r---|-------r---|-----------------||------------------------
------e---|---------e---|-------e---|-----------------||*-----------------------
------s---|---------s---|-------s---|-----------------||*-----------------------
0-0-x-t-x-|-0-0-x-x-t-x-|-0-0-x-t-x-|-0-0-x-x-x-x-x-x-||------------------------

q q q e e   q q e e s s s s   q q q e e   q q e e s s s s   q q q e e   q q e   
------r---|-----------------|-------r---|-----------------|-------r---|---------
------e---|-----------------|-------e---|-----------------|-------e---|---------
------s---|-----------------|-------s---|-----------------|-------s---|---------
0-0-x-t-x-|-0-0-x-x-x-x-x-x-|-0-0-x-t-x-|-0-0-x-x-x-x-x-x-|-0-0-x-t-x-|-0-0-x---
Bridge (w/o distortion)

e s s s s   q q q e e   q e e  e  e  q   3x q q q e e   q q e e s s s s   q q   
----------|-------r---|---r-------16-----||-------r---|-----------------|-------
----------|-------e---|---e-12/14----14*||-------e---|-----------------|-------
----------|-------s---|---s-------------*||-------s---|-----------------|-------
x-x-x-x-x-|-0-0-x-t-x-|-0-t--------------||-0-0-x-t-x-|-0-0-x-x-x-x-x-x-|-0-0---

q e e   q q e e s s s s   q q q e e   q q e e s s s s   q q q e e   q q q e e   
--r---|-----------------|-------r---|-----------------|-------r---|-----r-r-----
--e---|-----------------|-------e---|-----------------|-------e---|-----e-e-----
--s---|-----------------|-------s---|-----------------|-------s---|-----s-s-----
x-t-x-|-0-0-x-x-x-x-x-x-|-0-0-x-t-x-|-0-0-x-x-x-x-x-x-|-0-0-x-t-x-|-0-0-t-t-7---

     e e e e e   e e e e e   e e e e e   e e e e e   e e e e e   e e e e e      
|--------------|-----------|-----------|-----------|-----------|-----------|----
|-5:-----------|-----------|-----------|-----------|-----------|-----------|----
|-8:-7-7-7-7-7-|-7-7-7-7---|-7-7-7-7-7-|-7-7-7-7---|-5-5-5-5-5-|-5-5-5-5---|----
|--------------|---------7-|-----------|---------5-|-----------|---------5-|----

e e e e e   e e e e e   e e e e e   e e e e e   e e e e e   e e e e e   e e e   
----------|-----------|-----------|-----------|-----------|-----------|---------
----------|-----------|-----------|-----------|-----------|-----------|---------
5-5-5-5-5-|-5-5-5-5---|-7-7-7-7-7-|-7-7-7-7---|-7-7-7-7-7-|-7-7-7-7---|-5-5-5---
----------|---------7-|-----------|---------7-|-----------|---------5-|---------

                                               tr~~     tr~~
e e   e e e e e   e e e e e      Q q e   H   h q      h q      Q e e e   Q e    
----|-----------|-----------|----------|---|--------|--------|---------|--------
----|-----------|-----------|-3:-------|-2/|-5-5(5)-|-4-4(7)-|-3---3-5-|-2------
5-5-|-5-5-5-5---|-5-5-5-5-5-|-4:-------|---|--------|--------|---3-----|---2----
----|---------5-|-----------|----3-2-0-|---|--------|--------|---------|--------
                                         Chorus

        tr~~     tr~~
e e   h q      h q      h q      q q q e e   q q e e s s s s   q q q e e   q    
----|--------|--------|------||--------r---|-----------------|-------r---|------
2-4-|-5-5(5)-|-4-4(7)-|-3/21||*-------e---|-----------------|-------e---|------
----|--------|--------|------||*-------s---|-----------------|-------s---|------
----|--------|--------|------||--0-0-x-t-x-|-0-0-x-x-x-x-x-x-|-0-0-x-t-x-|-0----
                               2nd Bridge

q e e s s s s   q q q e e   q q e e s s s s   q q q e e   q e e  e  e  q   2x   
--------------|-------r---|-----------------|-------r---|---r-------16-----||---
--------------|-------e---|-----------------|-------e---|---e-12/14----14*||---
--------------|-------s---|-----------------|-------s---|---s-------------*||---
0-x-x-x-x-x-x-|-0-0-x-t-x-|-0-0-x-x-x-x-x-x-|-0-0-x-t-x-|-0-t--------------||---

    q q q e e   q q e e s s s s  2x     q q q e e   q q e e s s s s   q q q e   
||--------r---|------------------||-||--------r---|-----------------|-------r---
||*-------e---|-----------------*||-||*-------e---|-----------------|-------e---
||*-------s---|-----------------*||-||*-------s---|-----------------|-------s---
||--0-0-x-t-x-|-0-0-x-x-x-x-x-x--||-||--0-0-x-t-x-|-0-0-x-x-x-x-x-x-|-0-0-x-t---

e   q q q q  2x q q q e e   q q e e s s s s   q q q e e   q q q q     Q e h     
--|----------||-------r---|-----------------|-------r---|---------||--------|---
--|---------*||-------e---|-----------------|-------e---|---------||*-------|---
--|-----3-5-*||-------s---|-----------------|-------s---|-----3-5-||*-7-7-7-|---
x-|-0-0------||-0-0-x-t-x-|-0-0-x-x-x-x-x-x-|-0-0-x-t-x-|-0-0-----||--0-----|---

+h q q  2x h h   h q q   e e e e e e e e   e e e e q q   Q e h   h q q   h h    
--------||-----|-------|-----------------|-------------|-------|-------|-----|--
-------*||-----|-------|-----------------|-------------|-------|-------|-----|--
-7-3-5-*||-1-1-|---3-5-|-7-------7-------|-7-------3-5-|-7-7-7-|---3-5-|-1-1-|--
--------||-----|-2-----|---0-0-0---0-0-0-|---0-0-0-----|-0-----|-0-----|-----|--

h q q   e e e e e e e e   e e e e e e q   q q q q q q q q   s s e s s e s s e   
------|-----------------|---------------|-----------------|---------------------
------|-----------------|---------------|-----------------|---------------------
--3-5-|-----------------|---------------|-----------------|---------------------
2-----|-3-0-0-6-0-0-0-0-|-0-0-0-0-0-6-6-|-0-0-0-6-0-0-0-0-|-0-0-6-0-0-6-0-0-6---

s s e   e e e e e e e e   e e e e e e q   e e e e e e e e   e e e e e e e e     
------|-----------------|---------------|-----------------|---------------------
------|-----------------|---------------|-----------------|---------------------
------|-----------------|---------------|-----------------|---5-4-----5-4-------
0-0-6-|-0-0-0-6-0-0-0-0-|-0-0-0-0-0-6-6-|-0-0-0-6-0-0-0-0-|-0-----2-3-----2-----

    e e e e e e e e   e e e e e e q   e e e e e e e e   e e e e e e e e  2x     
||------------------|---------------|-----------------|------------------||-----
||*-----------------|---------------|-----------------|-----------------*||-----
||*-----------------|---------------|-----------------|---5-4-----5-4---*||-----
||--3-0-0-6-0-0-0-0-|-0-0-0-0-0-6-6-|-0-0-0-6-0-0-0-0-|-0-----2-3-----2--||-----

   e e e e e e e e e      w      e e e e e e      w      e e e e e e      w     
---------------------|------|----------------|------|----------------|------|---
9:-------------------|-4:---|-3:-------------|-4:---|-3:-------------|-4:---|---
8:-------1-----2-----|-4:-3-|-4:-1-----2-----|-4:-3-|-4:-1-----2-----|-4:-3-|---
---3-0-0---0-0---0-0-|------|------0-0---0-0-|------|------0-0---0-0-|------|---

                 tr~~     tr~~                         tr~~     tr~~
   Q q e   H   h q      h q      Q e e e   Q e e e   h q      h q      h q      
---------|---|--------|--------|---------|---------|--------|--------|-----|----
3:-------|-2/|-5-5(7)-|-4-4(7)-|-3---3-5-|-2---2-4-|-5-5(7)-|-4-4(7)-|-3-3/|----
4:-------|---|--------|--------|---3-----|---2-----|--------|--------|-----|----
---3-2-0-|---|--------|--------|---------|---------|--------|--------|-----|----
           Chorus

H   H   H   H   H   H   q q e^e^e^  H  +H
--|---|---|---|-5-|-5-|-5-4-2-4-2-|---|---||
7-|-6-|-5-|-4-|-3-|-3-|-3-3-3-----|-2-|-2-||
--|---|---|---|---|---|-----------|---|---||
--|---|---|---|---|---|-----------|---|---||


Текст, аккорды и табулатура для песни "Zombie Eaters", исполняет "Faith No More".
Используемые в песне аккорды можно найти в разделе Как брать аккорды. Аккорды для шестиструнной гитары. Другие песни можно найти на нашем сайте, воспользовавшись алфавитным указателем вверху страницы.


 
Ошибка в тексте? Выделите ошибку и нажмите Ctrl+Enter