FAITH NO MORE - EASY

Standard Tuning.

Guys & girls, this is the full tab of a great song. It's pretty easy to play, so just enjoy it

CHORDS USED:
     G#	   Cm	  A#m	D#   D#7    D#m	  B	F#   C#
E|----4-----3------1----11----11----11----7-----2-----4----|
B|----4-----4------2----11----11----11----7-----2-----6----|
G|----5-----5------3----12----12----11----8-----3-----6----|
D|----6-----5------3----13----11----13----9-----4-----6----|
A|----6-----3------1----13----13----13----9-----4-----4----|
E|----4-----3------1----11----11----11----7-----2-----4----|



G#                  Cm   
You know it sounds funny
                 A#m            D#
But I just can't stand the pain
G#        Cm               A#m     D#
Girl I'm leavin' you tomorrow
G#        Cm
Seems to me, girl
              A#m       D#    
You know I've done all I can
G#          Cm                A#m          D#
You see, I beg, stole and I borrowed, yeah


CHORUS:
            G#     Cm     A#m
It's why I'm easy
    D#7              G#      Cm     A#m     D#7
I'm easy like Sunday morning
             G#     Cm     A#m
It's why I'm easy 
 D#7              F#   C#   D#  G#  
Easy like Sunday mo o o o o rning


           F#    C#  D#m
I wanna be high, so high
           F#                        C#     D#m
I wanna be free to know the things I do are right
        C#  F#
I wanna be free
C#   D#m
Just me
      B    F#     B    C#
Oh baby


SOLO:
E-------------------------|------------------------------
B-------------------------|------------------------------
G------------13----(18)//-|------------------------------
D-------------------------|------------------------------
A--13br-------------------|--13br------------------------
E--------16---------------|--------16--16-----13-------

E--------------------------------------------------------
B------------16------------------------------------------
G----------------15--13----------------------------------
D------------------------16--15--13^^--13-15-13----------
A--13br-----------------------------------------15---15//
E---------16---------------------------------------------

E-------------------------|------------------------------
B-------------------------|------------------------------
G------------13----(18)//-|------------------------------
D-------------------------|------------------------------
A--13br-------------------|--13br------------------------
E--------16---------------|--------16--16-----13-------

E--------------------------------------------------
B------------16------16----------------------------
G----------------15------13b-15-15-13h15p13--------
D--------------------------------------------16----
A--13br--------------------------------------------
E---------16---------------------------------------

E-----------------------------12/13--11^^-----------
B---------------------------------------------------
G---------------------------------------------------
D--15--15--------15--13^^---------------------------
A---------------------------------------------------
E---------------------------------------------------


BACKING IN CHORUS:
E|----------------------|
B|----------------------|
G|----------------------|
D|--6--5--1--3----------|
A|----------------------|
E|----------------------|


Текст, аккорды и табулатура для песни "Easy", исполняет "Faith No More".
Используемые в песне аккорды можно найти в разделе Как брать аккорды. Аккорды для шестиструнной гитары. Другие песни можно найти на нашем сайте, воспользовавшись алфавитным указателем вверху страницы.


 
Ошибка в тексте? Выделите ошибку и нажмите Ctrl+Enter