Factory 81 - Patriot
Submitted By: Schecter Man

Tabber: John Cukras
Email: [email protected]

Tuning: C G C F A D

Riff 1:
D------------------------------------19-21-22-21-- (2nd time do 5-6-7-6, rest are 19etc)
A-------------------------------------------------
F-------------------------------------------------
C-------4-------------------4---------------------
G-------2-------------------2---------------------
C-00000---0000-3-2-1--00000---00000---------------
pm.....   ....        .....   .....

Riff 2:
C-----------
G-----------
C--00000000- (hordes of it, perhaps maybe a 3-2-1 in there, but I am not sure)
pm ........

Riff 3:
C-----------------99-9999--55-5555-------------11-11(x4)--77-7777-
G-0---------------77-7777--33-3333(x4) then ---9--9 ------55-5555-(all 4x's as well)
C-0(Let ring)-----------------------------------------------------

Then a Solo (if you tab that send it to me please! :) )

Then Riff 2

Then Riff 1

Then the end!


Текст, аккорды и табулатура для песни "Patriot", исполняет "Factory 81".
Используемые в песне аккорды можно найти в разделе Как брать аккорды. Аккорды для шестиструнной гитары. Другие песни можно найти на нашем сайте, воспользовавшись алфавитным указателем вверху страницы.


 
Ошибка в тексте? Выделите ошибку и нажмите Ctrl+Enter