Band: Factory 81
Cd  : Mastered Demo
Song: Diary II
Tabbed By Richie Elledge of Poppa Fearsome
 Riff I                 Intro   4x
|----------------------------------------------------------------------------
|----------------------------------------------------------------------------
|----------------------------------------------------------------------------
|----------------------------------------------------------------------------
|------------------------------------------------------------------000-8-----
|-12p0-0-0-12p0-0-13p0-12p0-0-12p0-0-13p0-12p0-0-12p0-0-0-130-12p0-000-8-----

 Riff II               Pre Verse 2x 
|------------------------------------------------------------------|
|------------------------------------------------------------------|
|------------------------------------------------------------------|
|-----------------13p0-12----------15p0-12----------13p0-12-000--8-|
|-----------------------------------------------------------000--8-|
|-12p0-0-0-12p0-0---------0-12p0-0---------0-12p0-0---------000--8-|x2
							      PM-|

 Riff III              Verse     2x
|-----------------------------------------------------------------------------------------------|
|-----------------------------------------------------------------------------------------------|
|-----------------------------------------------------------------------------------------------|
|10-12-12-12-12-12-10-12-12-12-12-12-12-12-12-12-10-12-12-12-12-12-10-12-12-12-12-12-15p14-12/10|
|-----------------------------------------------------------------------------------------------|
|-----------------------------------------------------------------------------------------------|

Pre Chorus                Riff I   4x
Chorus                    Riff II  2x
Verse                     Riff III 2x
Chorus                    Riff II  2x

Riff IV               Interlude 2x
|------------------------------------------------------|
|------------------------------------------------------|
|-7--7-7-10-10-10-10-10-10-10--------------------------|
|-7--7-7-10-10-10-10-10-10-10-1--1-1-1-1-1-1-1-1-1-1-1-|
|-5--5-5-8--8--8--8--8--8--8--1--1-1-1-1-1-1-1-1-1-1-1-|
|-5--5-5-8--8--8--8--8--8--8--1--1-1-1-1-1-1-1-1-1-1-1-|
				       PM-------------|

|------------------------------------------------------|
|------------------------------------------------------|
|-7--7-7-10-10-10-10-10-10-10--------------------------|
|-7--7-7-10-10-10-10-10-10-10-3--3-3-3-3-3-3-3-1-1-1-1-|
|-5--5-5-8--8--8--8--8--8--8--3--3-3-3-3-3-3-3-1-1-1-1-|
|-5--5-5-8--8--8--8--8--8--8--3--3-3-3-3-3-3-3-1-1-1-1-|
				       PM-------------|
Pre Chorus                 Riff I   4x
Chorus                     Riff II  2x
Interlude II               Riff IV  2x


 Riff V                     Outro   4x
|-------------------------------------------------|
|-------------------------------------------------|
|-----------------------------------7-7-8-8-8-7-8-|
|-0-1-1-0-1-1-1-0---0-1-1-0-1-1-1-0-0-0-0-0-0-0-0-|
|-0-1-1-0-1-1-1-0---0-1-1-0-1-1-1-0---------------|
|-0-1-1-0-1-1-1-0---0-1-1-0-1-1-1-0---------------|

 Riff VI                   Outro pt.II 3x 
|-----------------|
|-----------------|
|-----------------|
|-0-1-1-0-1-1-1-0-|
|-0-1-1-0-1-1-1-0-|
|-0-1-1-0-1-1-1-0-|

Outro pt.III               Riff V    4x 

 Riff VII                Outro pt.IV 4x
|--------------------------------------|
|--------------------------------------|
|-----------------19-19-20-20-20-19-20-|
|-0-1-1-0-1-1-1-0-0--0--0--0--0--0--0--|
|-0-1-1-0-1-1-1-0----------------------|
|-0-1-1-0-1-1-1-0----------------------|

End Song                   Riff VI  3x


Текст, аккорды и табулатура для песни "Diary Ii", исполняет "Factory 81".
Используемые в песне аккорды можно найти в разделе Как брать аккорды. Аккорды для шестиструнной гитары. Другие песни можно найти на нашем сайте, воспользовавшись алфавитным указателем вверху страницы.


 
Ошибка в тексте? Выделите ошибку и нажмите Ctrl+Enter