Factory 81 - Absentee Generation
Submitted By: Schecter Man

Tabber: John Cukras
Email: [email protected]

Tuning: C G C F A D

Intro:
D-------------------------------------------------------
A-------------------------------------------------------
F-------------------------------------------------------
C--9999999-1212-1111-7777777-9999999-1212-1111-7777777-- Pm All
G-------------------------------------------------------
C-------------------------------------------------------

Riff 1:
D-------------------------------------------------------
A-------------------------------------------------------
F-------------------------------------------------------
C---------77-55-----77-55-----77-55---------------------
G-----------------------------------3333-2222-----------
C-000-000-------000-------000-------3333-2222-----------
pm    ...       ...       ...

Riff 2:
D-------------------------------------------------------
A-------------------------------------------------------
F-------------------------------------------------------
C-------------------------------------------------------
G-----3-3/5-----3-3/5-5555-7777-3333--------------------
C-000-3-3/5-000-3-3/5-5555-7777-3333--------------------
pm...       ...

Riff 3:
D-------------------------------------------------------
A-------------------------------------------------------
F-------------------------------------------------------
C-------------------------------------------------------
G-0 (many times, let ring)--000-0-----------------------
C-0-------------------------000-0-----------------------
pm                          ...

Riff 4: (solo kinda)
D------------12-------19-17-15-1212------------12-------
A-3-3/5-7777----3-3/5---------------3-3/5-7777----3-3/5-
F-------------------------------------------------------
C-------------------------------------------------------
G-------------------------------------------------------
C-------------------------------------------------------

D-------12-------------12-9-7-5-1-3-----12-9-7-5-1-3-----12-9-7-5-1-333-------
A--7777----3-3/5-7777---------------333--------------333----------------3-3/5-
F-----------------------------------------------------------------------------
C-----------------------------------------------------------------------------
G-----------------------------------------------------------------------------
C-----------------------------------------------------------------------------


Enjoy!


Текст, аккорды и табулатура для песни "Absentee Generation", исполняет "Factory 81".
Используемые в песне аккорды можно найти в разделе Как брать аккорды. Аккорды для шестиструнной гитары. Другие песни можно найти на нашем сайте, воспользовавшись алфавитным указателем вверху страницы.


 
Ошибка в тексте? Выделите ошибку и нажмите Ctrl+Enter