Band: Factory 81 
Song: 3 O'Clock Love Letter 
Album: Mankind 
Transcribed by: BUddAh MAn 

This song is great and fun to play so just play it! 
E-MAIL ME WITH QUESTIONS OR COMMENTS [email protected] 

=:LET NOTE RING 
h: this hammering is done with your finger(no picking) 
P.M.: Palm Mute 
: Harmonic 
p: Pull Off 
/:Slide 
THERE ARE NO DOUBLE DIGIT FRETS PLAYED IN THIS SONG 

INTRO W/PHASER OR CHORUS/FLANGE PEDAL AND SLIGHT DISTORTION 
D|------------------------------| 
A|------------------------------| 
F|------------------------------|PLAY THIS SEVERAL TIMES. 
C|------------------------------| 
G|--0h2-2-2--0h2-2-2--2h3-3p0---| 
C|--0h2-2-2--0h2-2-2--2h3-3p0---| 
P.M.    -        - 

CHORUS/INTRO 2 W/FULL DISTORTION 
D|-----------------------------------------| 
A|-----------------------------------------| 
F|-----------------------------------------| 
C|--0h2-22-22-00-0-2/3-5-5-555-33-------| 
G|--0h2-22-22-00-0-2/3-5-5-555-33-------| 
C|--0h2-22-22-00-0-2/3-5-5-555-33----------| 

VERSE FULL DISTORTION 
D|------------------------| 
A|------------------------| 
F|------------------------| 
C|--0h2-2-2--0h2-2-2h3-3--| 
G|--0h2-2-2--0h2-2-2h3-3--| 
C|--0h2-2-2--0h2-2-2h3-3--| 
P.M.  - -      - - 

BRIDGE 1 THIS ENDS THE CHROUS PLAYED BEFORE IT 
SO YOU WILL PLAY THE NOTE UNTILL YOU GET FEEDBACK. 
D|------| 
A|------| 
F|------| 
C|--2---| 
G|--2---| 
C|--2---| 
    = 

BRIDGE 2 
D|-----------| 
A|-----------| 
F|-----------| 
C|------9----| 
G|--------9--| 
C|--7--------| 
    = 

BRIDGE 3 
D|------------------------| 
A|------------------------| 
F|------------------------| 
C|--2----3-2----2----3-2--| 
G|--2----3-2----2----3-2--| 
C|--2----3-2----2----3-2--| 
    =      =    =      = 

BRIDGE 4 THIS PART IS NOT EXACT BUT 
ITS SOUNDS DAMN CLOSE 
D|---------------| 
A|---------------| 
F|---------------| 
C|--2-2-2--------| 
G|--2-2-2---3----| 
C|--2-2-2-0---3--| 

PLAY THE CHORUS A COUPLE MORE TIMES AND THAT'S IT! 
PEACE OUT!! 


Текст, аккорды и табулатура для песни "3 O Clock Love Letter", исполняет "Factory 81".
Используемые в песне аккорды можно найти в разделе Как брать аккорды. Аккорды для шестиструнной гитары. Другие песни можно найти на нашем сайте, воспользовавшись алфавитным указателем вверху страницы.


 
Ошибка в тексте? Выделите ошибку и нажмите Ctrl+Enter