Band: Factory 81 
Album: Mankind 
Song: 14 left 
TRANSCRIBED BY: BUddAh MAn 

Tuning(low to high):C,G,C,F,A,D 
Factory 81 kicks ass and this song is kind of simple but 
it is fun as hell to play and it gets you going, so play 
on and have a good tyme with it. Peace, e-mail me for 
questions or comments, or corrections @ [email protected] 

: Harmonic 
there are no double digit frets in this song. 

INTRO/BRIDGE W/SLIGHT DISTORTION AND SOME TYPE OIF EFFECT 
D|--------------------------------------------------| 
A|--------------------------------------------------| 
F|--------------------------------------------------| 
C|--------------------------------------------------| 
G|--------------------------------------------------| 
C|--0-2-22-0-2-00-2-22-0-2-00-2-22-0-2-00-2-22-0-2--| 

INTRO PART 2/VERSE(VERSE IS PALM MUTED) 
D|------------------------------------------|------| 
A|------------------------------------------|------|DURING THE BRIDGE 
F|------------------------------------------|------|PLAY THAT NOTE. 
C|--0-2-22-0-2-00-2-22-0-2-00-2-22-0-----|--5---| 
G|--0-2-22-0-2-00-2-22-0-2-00-2-22-0--------|--3---| 
C|--0-2-22-0-2-00-2-22-0-2-00-2-22-0--------|------| 

PRE-CHORUS/CHORUS 
D|-------------------| 
A|-------------------| 
F|-------------------| 
C|--2------2-0-2-----| 
G|--2------2-0-2-----| 
C|--2------2-0-2-----| 
   LET         LET 
   RING        RING 

THAT WOULD BE THE WHOLE SONG THERE EXCEPT FOR DURING THE 
BIERDGE THE VERSE IS PLAYED A BUNCH WITH A SLIGHT DIFFERENCE 
IN THE BEAT SO JUST LISTEN TO THE SONG AND YOU'LL HEAR WHAT I MEAN. 

PEACE OUT!! 


Текст, аккорды и табулатура для песни "14 Left", исполняет "Factory 81".
Используемые в песне аккорды можно найти в разделе Как брать аккорды. Аккорды для шестиструнной гитары. Другие песни можно найти на нашем сайте, воспользовавшись алфавитным указателем вверху страницы.


 
Ошибка в тексте? Выделите ошибку и нажмите Ctrl+Enter