Exodus
Pleasures of the Flesh
Pleasures of the Flesh
Transcribed by Mike Kimball, May 2001
[[email protected]]
[geocities.com/bloodmetalcontent] 

As with all guitar tablature, a mono-spaced font
(e.g. Courier or Monaco) is required to display properly...


Fig. 1
[gtr. 1]
|-------------------------------------------------------------------
|-------------------------------------------------------------------
|-------------------------------------------------------------------
|--2-------------------------------2--------------------------------
|--2-------------------------------2--------------------------------
|--0---------------------------0-0-0---------------------------0-0--

[gtr. 2]
|-------------------------------------------------------------------
|-------------------------------------------------------------------
|-------------------------------------------------------------------
|--------6-7p6---6-----------------------6-7p6---9-7-6---6----------
|----7-8-------8---8-7-5-7-8-7-------7-8-------8-------8---8-7------
|--0---------------------------0-0-0---------------------------0-0--

[gtr. 1]
|-------------------------------------------------------------------
|-------------------------------------------------------------------
|-------------------------------------------------------------------
|--2---------------------------------5-7-5---5----------------------
|--2---------------------------------------8---8-7-5-7-5-------5----
|--0---------------------------0-0-0---------------------8-7-8---8--

[gtr. 2]
|-------------------------------------------------------------------
|-------------------------------------------------------------------
|-------------------------------------------------------------------
|--------6-7p6---6--------------------------------------------------
|----7-8-------8---8-7-5-7-8-7-------7-8-7-5-7-5--------------------
|--0---------------------------0-0-0-------------8-7-8-7-5-4-5-7-5--


Fig. 2
|-------------------------------------------------------------------
|-------------------------------------------------------------------
|-------------------------------------------------------------------
|--------------------------------------------------------------6----
|------87---87---87---87-----------87---87---87---87---6----
|--0---65-0-65-0-65-0-65-0-1-3-0---65-0-65-0-65-0-65-0------

|-----------------------------------------------------------------------
|-----------------------------------------------------------------------
|-----------------------------------------------------------------------
|--3--------------------------------------------------------------10----
|--3-------87---87---87---87-----------87---87---87---87---8----
|------0---65-0-65-0-65-0-65-0-1-3-0---65-0-65-0-65-0-65-0------

|-----------------------------------------------------------------------
|-----------------------------------------------------------------------
|-----------------------------------------------------------------------
|-10---------------------------------------------------------------6----
|--8-------87---87---87---87-----------87---87---87---87---6----
|------0---65-0-65-0-65-0-65-0-1-3-0---65-0-65-0-65-0-65-0------

|-----------------------------------------------------------------------
|-----------------------------------------------------------------------
|-----------------------------------------------------------------------
|--3---------------------------------------------------------------9----
|--3-------87---87---87---87-----------87---87---87---87---7----
|------0---65-0-65-0-65-0-65-0-1-3-0---65-0-65-0-65-0-65-0------

|--------------
|--------------
|--------------
|-----------9--
|-----------7--
|-------0-0----


Fig. 3
|-------------------------------------------------------------------
|-------------------------------------------------------------------
|-------------------------------------------------------------------
|--------------------------------3----------------------------------
|--5-----------------------------1---------------3-------------3----
|--3---3-3-3-3-3-3-3-3-3-3-3-3-0---------------0-1-------------1-0--

|-------------------------------------------------------------------
|-------------------------------------------------------------------
|-------------------------------------------------------------------
|--9--10-----------------------------9---7--------------------------
|--7---8-----------------------------7---5--------------------------
|----------0-0-0-0-0-0-0-0-0-0-0-------------0-0-0-0-0-0-0-0-0-0----

|-------------------------------------------------------------------
|-------------------------------------------------------------------
|-------------------------------------------------------------------
|--9--10-----------------------------7---5-----------3---2----------
|--7---8-----------------------------5---3-----------1---0-----5----
|----------0-0-0-0-0-0-0-0-0-0-0-------------0-0-------------0-3----

|-------------------------------------------------------------------
|-------------------------------------------------------------------
|-------------------------------------------------------------------
|----------------------------3--------------------------------------
|----------------------------1-----------------3-----------------2--
|--3-3-3-3-3-3-3-3-3-3-3-3-0-------------------1-----------------0--


Fig. 4
[gtr. 1]
|-------------------------------------------------------------------
|----------------------------------------------------------6-5------
|--------4-5p4---4-----------------------4-5p4---7-5-4---4----------
|----5-7-------7---7p5---5-----------5-7-------7-------7------------
|----------------------8---8p7--------------------------------------
|--0---------------------------0-0-0---------------------------0-0--

|-------------------------------------------------------------------
|-------------------------------------------------------------------
|--------4-5p4---4--------------------------------------------------
|----5-7-------7---7p5---5-----------5-7-5---5----------------------
|----------------------8---8p7-------------8---8-7-5-7-5-------5----
|--0---------------------------0-0-0---------------------8-7-8---8--

[gtr. 2 = same as Fig. 1]


Fig. 5
|-------------------------------------------------------------------
|-------------------------------------------------------------------
|-------------------------------------------------------------------
|-----109----10-----9------------------109----10-----9-----6-----3
|------87-----8-----7-------------------87-----8-----7-----6-----3
|--0---------0-----0-----0-0-0-0-0-0-0---------------------0--------

[...riff follows circuit from Fig. 2]


Fig. 6
|---------------------------------|----------------------------------
|---------------------------------|----------------------------------
|---------------------------------|----------------------------------
|--------------3-------3-------3--|--------------5-------5-------5---
|--------------1-------1-------1--|--------------3-------3-------3---
|--3-1---0---0-----0-0-----0-0----|--5-3---2---2-----2-2-----2-2-----




****FOR EDUCATIONAL USE ONLY!! USE THIS FOR COMMERCIAL****
****PURPOSES, AND WE WILL HUNT YOU DOWN, KILL YOU, THEN****
****TORTURE YOUR IMMORTAL SOUL FOR ALL ETERNITY!!!!!!!!****


Текст, аккорды и табулатура для песни "Pleasures Of The Flesh", исполняет "Exodus".
Используемые в песне аккорды можно найти в разделе Как брать аккорды. Аккорды для шестиструнной гитары. Другие песни можно найти на нашем сайте, воспользовавшись алфавитным указателем вверху страницы.


 
Ошибка в тексте? Выделите ошибку и нажмите Ctrl+Enter